  0
SECTION
  2
HEADER
  9
$ACADVER
  1
AC1015
  9
$ACADMAINTVER
 70
     6
  9
$DWGCODEPAGE
  3
ANSI_1252
  9
$INSBASE
 10
0.0
 20
0.0
 30
0.0
  9
$EXTMIN
 10
-200.0
 20
-200.0
 30
0.0
  9
$EXTMAX
 10
200.0
 20
200.0
 30
0.0
  9
$LIMMIN
 10
0.0
 20
0.0
  9
$LIMMAX
 10
420.0
 20
297.0
  9
$ORTHOMODE
 70
     0
  9
$REGENMODE
 70
     1
  9
$FILLMODE
 70
     1
  9
$QTEXTMODE
 70
     0
  9
$MIRRTEXT
 70
     1
  9
$LTSCALE
 40
1.0
  9
$ATTMODE
 70
     1
  9
$TEXTSIZE
 40
3.5
  9
$TRACEWID
 40
1.0
  9
$TEXTSTYLE
  7
Standard
  9
$CLAYER
  8
0
  9
$CELTYPE
  6
ByLayer
  9
$CECOLOR
 62
   256
  9
$CELTSCALE
 40
1.0
  9
$DISPSILH
 70
     0
  9
$DIMSCALE
 40
1.0
  9
$DIMASZ
 40
3.302
  9
$DIMEXO
 40
1.0
  9
$DIMDLI
 40
3.75
  9
$DIMRND
 40
0.0
  9
$DIMDLE
 40
0.0
  9
$DIMEXE
 40
1.0
  9
$DIMTP
 40
0.0
  9
$DIMTM
 40
0.0
  9
$DIMTXT
 40
3.5
  9
$DIMCEN
 40
2.5
  9
$DIMTSZ
 40
0.0
  9
$DIMTOL
 70
     0
  9
$DIMLIM
 70
     0
  9
$DIMTIH
 70
     1
  9
$DIMTOH
 70
     1
  9
$DIMSE1
 70
     0
  9
$DIMSE2
 70
     0
  9
$DIMTAD
 70
     1
  9
$DIMZIN
 70
     0
  9
$DIMBLK
  1

  9
$DIMASO
 70
     1
  9
$DIMSHO
 70
     1
  9
$DIMPOST
  1

  9
$DIMAPOST
  1

  9
$DIMALT
 70
     0
  9
$DIMALTD
 70
     3
  9
$DIMALTF
 40
0.0393700787
  9
$DIMLFAC
 40
1.0
  9
$DIMTOFL
 70
     1
  9
$DIMTVP
 40
0.0
  9
$DIMTIX
 70
     0
  9
$DIMSOXD
 70
     0
  9
$DIMSAH
 70
     0
  9
$DIMBLK1
  1

  9
$DIMBLK2
  1

  9
$DIMSTYLE
  2
ISO-25
  9
$DIMCLRD
 70
     0
  9
$DIMCLRE
 70
     0
  9
$DIMCLRT
 70
     0
  9
$DIMTFAC
 40
1.0
  9
$DIMGAP
 40
1.524
  9
$DIMJUST
 70
     0
  9
$DIMSD1
 70
     0
  9
$DIMSD2
 70
     0
  9
$DIMTOLJ
 70
     0
  9
$DIMTZIN
 70
     0
  9
$DIMALTZ
 70
     0
  9
$DIMALTTZ
 70
     0
  9
$DIMUPT
 70
     0
  9
$DIMDEC
 70
     2
  9
$DIMTDEC
 70
     2
  9
$DIMALTU
 70
     2
  9
$DIMALTTD
 70
     3
  9
$DIMTXSTY
  7
Standard
  9
$DIMAUNIT
 70
     0
  9
$DIMADEC
 70
     2
  9
$DIMALTRND
 40
0.0
  9
$DIMAZIN
 70
     0
  9
$DIMDSEP
 70
    44
  9
$DIMATFIT
 70
     3
  9
$DIMFRAC
 70
     0
  9
$DIMLDRBLK
  1

  9
$DIMLUNIT
 70
     2
  9
$DIMLWD
 70
    -2
  9
$DIMLWE
 70
    -2
  9
$DIMTMOVE
 70
     0
  9
$LUNITS
 70
     2
  9
$LUPREC
 70
     2
  9
$SKETCHINC
 40
1.0
  9
$FILLETRAD
 40
10.0
  9
$AUNITS
 70
     0
  9
$AUPREC
 70
     2
  9
$MENU
  1
.
  9
$ELEVATION
 40
0.0
  9
$PELEVATION
 40
0.0
  9
$THICKNESS
 40
0.0
  9
$LIMCHECK
 70
     0
  9
$CHAMFERA
 40
0.0
  9
$CHAMFERB
 40
0.0
  9
$CHAMFERC
 40
0.0
  9
$CHAMFERD
 40
0.0
  9
$SKPOLY
 70
     0
  9
$TDCREATE
 40
2458533.481342928
  9
$TDUCREATE
 40
2458533.481342928
  9
$TDUPDATE
 40
2458533.481429155
  9
$TDUUPDATE
 40
2458533.481429155
  9
$TDINDWG
 40
0.0000000116
  9
$TDUSRTIMER
 40
0.0000000116
  9
$USRTIMER
 70
     1
  9
$ANGBASE
 50
0.0
  9
$ANGDIR
 70
     0
  9
$PDMODE
 70
     0
  9
$PDSIZE
 40
-1.0
  9
$PLINEWID
 40
0.0
  9
$SPLFRAME
 70
     0
  9
$SPLINETYPE
 70
     6
  9
$SPLINESEGS
 70
     8
  9
$HANDSEED
  5
C9
  9
$SURFTAB1
 70
     6
  9
$SURFTAB2
 70
     6
  9
$SURFTYPE
 70
     6
  9
$SURFU
 70
     6
  9
$SURFV
 70
     6
  9
$UCSBASE
  2

  9
$UCSNAME
  2

  9
$UCSORG
 10
0.0
 20
0.0
 30
0.0
  9
$UCSXDIR
 10
1.0
 20
0.0
 30
0.0
  9
$UCSYDIR
 10
0.0
 20
1.0
 30
0.0
  9
$UCSORTHOREF
  2

  9
$UCSORTHOVIEW
 70
     0
  9
$UCSORGTOP
 10
0.0
 20
0.0
 30
0.0
  9
$UCSORGBOTTOM
 10
0.0
 20
0.0
 30
0.0
  9
$UCSORGLEFT
 10
0.0
 20
0.0
 30
0.0
  9
$UCSORGRIGHT
 10
0.0
 20
0.0
 30
0.0
  9
$UCSORGFRONT
 10
0.0
 20
0.0
 30
0.0
  9
$UCSORGBACK
 10
0.0
 20
0.0
 30
0.0
  9
$PUCSBASE
  2

  9
$PUCSNAME
  2

  9
$PUCSORG
 10
0.0
 20
0.0
 30
0.0
  9
$PUCSXDIR
 10
1.0
 20
0.0
 30
0.0
  9
$PUCSYDIR
 10
0.0
 20
1.0
 30
0.0
  9
$PUCSORTHOREF
  2

  9
$PUCSORTHOVIEW
 70
     0
  9
$PUCSORGTOP
 10
0.0
 20
0.0
 30
0.0
  9
$PUCSORGBOTTOM
 10
0.0
 20
0.0
 30
0.0
  9
$PUCSORGLEFT
 10
0.0
 20
0.0
 30
0.0
  9
$PUCSORGRIGHT
 10
0.0
 20
0.0
 30
0.0
  9
$PUCSORGFRONT
 10
0.0
 20
0.0
 30
0.0
  9
$PUCSORGBACK
 10
0.0
 20
0.0
 30
0.0
  9
$USERI1
 70
     0
  9
$USERI2
 70
     0
  9
$USERI3
 70
     0
  9
$USERI4
 70
     0
  9
$USERI5
 70
     0
  9
$USERR1
 40
0.0
  9
$USERR2
 40
0.0
  9
$USERR3
 40
0.0
  9
$USERR4
 40
0.0
  9
$USERR5
 40
0.0
  9
$WORLDVIEW
 70
     1
  9
$SHADEDGE
 70
     3
  9
$SHADEDIF
 70
    70
  9
$TILEMODE
 70
     1
  9
$MAXACTVP
 70
    64
  9
$PINSBASE
 10
0.0
 20
0.0
 30
0.0
  9
$PLIMCHECK
 70
     0
  9
$PEXTMIN
 10
-200.0
 20
0.0
 30
0.0
  9
$PEXTMAX
 10
200.0
 20
120.0
 30
0.0
  9
$PLIMMIN
 10
-231.1284046693
 20
-11.673151751
  9
$PLIMMAX
 10
231.1284046692
 20
315.1750972763
  9
$UNITMODE
 70
     0
  9
$VISRETAIN
 70
     1
  9
$PLINEGEN
 70
     0
  9
$PSLTSCALE
 70
     1
  9
$TREEDEPTH
 70
  3020
  9
$CMLSTYLE
  2
Standard
  9
$CMLJUST
 70
     0
  9
$CMLSCALE
 40
20.0
  9
$PROXYGRAPHICS
 70
     1
  9
$MEASUREMENT
 70
     1
  9
$CELWEIGHT
370
    -1
  9
$ENDCAPS
280
     0
  9
$JOINSTYLE
280
     0
  9
$LWDISPLAY
290
     1
  9
$INSUNITS
 70
     4
  9
$HYPERLINKBASE
  1

  9
$STYLESHEET
  1

  9
$XEDIT
290
     1
  9
$CEPSNTYPE
380
     0
  9
$PSTYLEMODE
290
     1
  9
$FINGERPRINTGUID
  2
{b89f7d95-665a-45c0-91f5-a1fdaa1887b3}
  9
$VERSIONGUID
  2
{FAEB1C32-E019-11D5-929B-00C0DF256EC4}
  9
$EXTNAMES
290
     1
  9
$PSVPSCALE
 40
0.0
  9
$OLESTARTUP
290
     0
  0
ENDSEC
  0
SECTION
  2
CLASSES
  0
CLASS
  1
ACDBDICTIONARYWDFLT
  2
AcDbDictionaryWithDefault
  3
ObjectDBX Classes
 90
        0
280
     0
281
     0
  0
CLASS
  1
VISUALSTYLE
  2
AcDbVisualStyle
  3
ObjectDBX Classes
 90
     4095
280
     0
281
     0
  0
CLASS
  1
MATERIAL
  2
AcDbMaterial
  3
ObjectDBX Classes
 90
     1153
280
     0
281
     0
  0
CLASS
  1
SCALE
  2
AcDbScale
  3
ObjectDBX Classes
 90
     1153
280
     0
281
     0
  0
CLASS
  1
TABLESTYLE
  2
AcDbTableStyle
  3
ObjectDBX Classes
 90
     4095
280
     0
281
     0
  0
CLASS
  1
MLEADERSTYLE
  2
AcDbMLeaderStyle
  3
ACDB_MLEADERSTYLE_CLASS
 90
     4095
280
     0
281
     0
  0
CLASS
  1
SUN
  2
AcDbSun
  3
SCENEOE
 90
     1153
280
     0
281
     0
  0
CLASS
  1
ACDBPLACEHOLDER
  2
AcDbPlaceHolder
  3
ObjectDBX Classes
 90
        0
280
     0
281
     0
  0
CLASS
  1
LAYOUT
  2
AcDbLayout
  3
ObjectDBX Classes
 90
        0
280
     0
281
     0
  0
ENDSEC
  0
SECTION
  2
TABLES
  0
TABLE
  2
VPORT
  5
8
330
0
100
AcDbSymbolTable
 70
     1
  0
VPORT
  5
29
330
8
100
AcDbSymbolTableRecord
100
AcDbViewportTableRecord
  2
*Active
 70
     0
 10
0.0
 20
0.0
 11
1.0
 21
1.0
 12
0.0
 22
0.0
 13
0.0
 23
0.0
 14
10.0
 24
10.0
 15
10.0
 25
10.0
 16
0.0
 26
0.0
 36
1.0
 17
0.0
 27
0.0
 37
0.0
 40
408.0
 41
1.0
 42
50.0
 43
0.0
 44
0.0
 50
0.0
 51
0.0
 71
     0
 72
   100
 73
     1
 74
     3
 75
     0
 76
     0
 77
     0
 78
     0
281
     0
 65
     1
110
0.0
120
0.0
130
0.0
111
1.0
121
0.0
131
0.0
112
0.0
122
1.0
132
0.0
 79
     0
146
0.0
  0
ENDTAB
  0
TABLE
  2
LTYPE
  5
5
330
0
100
AcDbSymbolTable
 70
     6
  0
LTYPE
  5
14
330
5
100
AcDbSymbolTableRecord
100
AcDbLinetypeTableRecord
  2
ByBlock
 70
     0
  3

 72
    65
 73
     0
 40
0.0
  0
LTYPE
  5
15
330
5
100
AcDbSymbolTableRecord
100
AcDbLinetypeTableRecord
  2
ByLayer
 70
     0
  3

 72
    65
 73
     0
 40
0.0
  0
LTYPE
  5
16
330
5
100
AcDbSymbolTableRecord
100
AcDbLinetypeTableRecord
  2
Continuous
 70
     0
  3
Solid line
 72
    65
 73
     0
 40
0.0
  0
LTYPE
  5
6E
330
5
100
AcDbSymbolTableRecord
100
AcDbLinetypeTableRecord
  2
HIDDEN
 70
     0
  3
Hidden __ __ __ __ __ __ __ __ __ __ __ __ __ __
 72
    65
 73
     2
 40
1.905
 49
1.27
 74
     0
 49
-0.635
 74
     0
  0
LTYPE
  5
6F
330
5
100
AcDbSymbolTableRecord
100
AcDbLinetypeTableRecord
  2
PHANTOM
 70
     0
  3
Phantom ______  __  __  ______  __  __  ______
 72
    65
 73
     6
 40
12.7
 49
6.35
 74
     0
 49
-1.27
 74
     0
 49
1.27
 74
     0
 49
-1.27
 74
     0
 49
1.27
 74
     0
 49
-1.27
 74
     0
  0
LTYPE
  5
70
330
5
100
AcDbSymbolTableRecord
100
AcDbLinetypeTableRecord
  2
CENTER
 70
     0
  3
Center ____ _ ____ _ ____ _ ____ _ ____ _ ____
 72
    65
 73
     4
 40
10.16
 49
6.35
 74
     0
 49
-1.27
 74
     0
 49
1.27
 74
     0
 49
-1.27
 74
     0
  0
LTYPE
  5
71
330
5
100
AcDbSymbolTableRecord
100
AcDbLinetypeTableRecord
  2
CENTERX2
 70
     0
  3
Center (2x) ________  __  ________  __  _____
 72
    65
 73
     4
 40
20.32
 49
12.7
 74
     0
 49
-2.54
 74
     0
 49
2.54
 74
     0
 49
-2.54
 74
     0
  0
LTYPE
  5
72
330
5
100
AcDbSymbolTableRecord
100
AcDbLinetypeTableRecord
  2
DOT2
 70
     0
  3
Dot (.5x) ........................................
 72
    65
 73
     2
 40
0.635
 49
0.0
 74
     0
 49
-0.635
 74
     0
  0
ENDTAB
  0
TABLE
  2
LAYER
  5
2
330
0
100
AcDbSymbolTable
 70
     1
  0
LAYER
  5
10
330
2
100
AcDbSymbolTableRecord
100
AcDbLayerTableRecord
  2
0
 70
     0
 62
     7
  6
Continuous
370
    -3
390
F
  0
ENDTAB
  0
TABLE
  2
STYLE
  5
3
330
0
100
AcDbSymbolTable
 70
     1
  0
STYLE
  5
11
330
3
100
AcDbSymbolTableRecord
100
AcDbTextStyleTableRecord
  2
Standard
 70
     0
 40
0.0
 41
1.0
 50
0.0
 71
     0
 42
3.5
  3
txt
  4

  0
ENDTAB
  0
TABLE
  2
VIEW
  5
6
330
0
100
AcDbSymbolTable
 70
     0
  0
ENDTAB
  0
TABLE
  2
UCS
  5
7
330
0
100
AcDbSymbolTable
 70
     0
  0
ENDTAB
  0
TABLE
  2
APPID
  5
9
330
0
100
AcDbSymbolTable
 70
     1
  0
APPID
  5
12
330
9
100
AcDbSymbolTableRecord
100
AcDbRegAppTableRecord
  2
ACAD
 70
     0
  0
ENDTAB
  0
TABLE
  2
DIMSTYLE
  5
A
330
0
100
AcDbSymbolTable
 70
     1
100
AcDbDimStyleTable
  0
DIMSTYLE
105
27
330
A
100
AcDbSymbolTableRecord
100
AcDbDimStyleTableRecord
  2
ISO-25
 70
     0
 41
2.5
 42
0.625
 43
3.75
 44
1.25
 73
     0
 74
     0
 77
     1
 78
     8
140
2.5
141
2.5
143
0.0393700787
147
0.625
171
     3
172
     1
178
     0
271
     2
272
     2
274
     3
278
    44
283
     0
284
     8
340
11
  0
ENDTAB
  0
TABLE
  2
BLOCK_RECORD
  5
1
330
0
100
AcDbSymbolTable
 70
     1
  0
BLOCK_RECORD
  5
1F
330
1
100
AcDbSymbolTableRecord
100
AcDbBlockTableRecord
  2
*Model_Space
340
22
  0
BLOCK_RECORD
  5
1B
330
1
100
AcDbSymbolTableRecord
100
AcDbBlockTableRecord
  2
*Paper_Space
340
1E
  0
BLOCK_RECORD
  5
23
330
1
100
AcDbSymbolTableRecord
100
AcDbBlockTableRecord
  2
*Paper_Space0
340
26
  0
ENDTAB
  0
ENDSEC
  0
SECTION
  2
BLOCKS
  0
BLOCK
  5
20
330
1F
100
AcDbEntity
  8
0
100
AcDbBlockBegin
  2
*Model_Space
 70
     0
 10
0.0
 20
0.0
 30
0.0
  3
*Model_Space
  1

  0
ENDBLK
  5
21
330
1F
100
AcDbEntity
  8
0
100
AcDbBlockEnd
  0
BLOCK
  5
1C
330
1B
100
AcDbEntity
 67
     1
  8
0
100
AcDbBlockBegin
  2
*Paper_Space
 70
     0
 10
0.0
 20
0.0
 30
0.0
  3
*Paper_Space
  1

  0
ENDBLK
  5
1D
330
1B
100
AcDbEntity
 67
     1
  8
0
100
AcDbBlockEnd
  0
BLOCK
  5
24
330
23
100
AcDbEntity
  8
0
100
AcDbBlockBegin
  2
*Paper_Space0
 70
     0
 10
0.0
 20
0.0
 30
0.0
  3
*Paper_Space0
  1

  0
SPLINE
  5
94
330
23
100
AcDbEntity
  8
0
  6
Continuous
 62
     7
370
    25
100
AcDbSpline
210
0.0
220
0.0
230
1.0
 70
     8
 71
     3
 72
    74
 73
    70
 74
     0
 42
0.000000001
 43
0.00000001
 40
0.0
 40
0.0
 40
0.0
 40
0.0
 40
0.0088001404255503
 40
0.0239665907685264
 40
0.0391412417467209
 40
0.0543234924608453
 40
0.069512513815744
 40
0.0847073524022871
 40
0.0999070174757931
 40
0.1151105467368221
 40
0.1303170509101167
 40
0.1455257397956569
 40
0.1607359336950062
 40
0.1759470642945315
 40
0.1911586686425512
 40
0.2063703258648535
 40
0.2215817268303016
 40
0.23679268002993
 40
0.2520030498451516
 40
0.2672127463673495
 40
0.2824217165550597
 40
0.2976299367306753
 40
0.312837406332902
 40
0.328044142795109
 40
0.3432501774024598
 40
0.3584555519808671
 40
0.3736603162808223
 40
0.3888645259337965
 40
0.4040682408751177
 40
0.4192715241430999
 40
0.43447444097871
 40
0.4496770581628194
 40
0.4648794435388178
 40
0.4800816656772651
 40
0.4952837936462592
 40
0.5104858968566767
 40
0.5256880378063418
 40
0.5408902702261458
 40
0.5560926640187108
 40
0.5712952890901642
 40
0.5864982152123679
 40
0.601701511821754
 40
0.6169052477228427
 40
0.6321094906617537
 40
0.6473143067282819
 40
0.6625197595367157
 40
0.6777259091251919
 40
0.6929328105009336
 40
0.7081405117443869
 40
0.7233490515691089
 40
0.7385584562173224
 40
0.7537687355545646
 40
0.7689798782135028
 40
0.7841918456311661
 40
0.7994045648319384
 40
0.8146179198408231
 40
0.8298317416818509
 40
0.8450457897487628
 40
0.8602596398681557
 40
0.8754728604052764
 40
0.8906849145061725
 40
0.9058951514551187
 40
0.921102803698702
 40
0.9363069929711553
 40
0.9515067495986921
 40
0.966701049214906
 40
0.9818888703792188
 40
0.9970692745022897
 40
1.0
 40
1.0
 40
1.0
 40
1.0
 10
192.8441488397214
 20
127.8396170584244
 30
0.0
 10
192.4417862653694
 20
128.7010375997891
 30
0.0
 10
191.3459788471075
 20
131.0470585262903
 30
0.0
 10
189.2194213147261
 20
134.8192590253916
 30
0.0
 10
186.4995570911811
 20
139.1535217235546
 30
0.0
 10
183.4703319055421
 20
143.4191362556083
 30
0.0
 10
180.1541310661521
 20
147.6121567719465
 30
0.0
 10
176.5515059743465
 20
151.7250123420362
 30
0.0
 10
172.6694952468387
 20
155.7512768306003
 30
0.0
 10
168.5140041942954
 20
159.6844181063474
 30
0.0
 10
164.0918194757934
 20
163.5181547851096
 30
0.0
 10
159.410040937672
 20
167.2463760899864
 30
0.0
 10
154.4762075313552
 20
170.8631742685395
 30
0.0
 10
149.298239374982
 20
174.3628436818459
 30
0.0
 10
143.8844375803452
 20
177.7398829647779
 30
0.0
 10
138.243463773722
 20
180.9890011149591
 30
0.0
 10
132.3843207561113
 20
184.1051248656961
 30
0.0
 10
126.3163305464558
 20
187.0834051235806
 30
0.0
 10
120.0491233462651
 20
189.9192179695845
 30
0.0
 10
113.5926300592713
 20
192.6081655664342
 30
0.0
 10
106.9570682872151
 20
195.1460809222281
 30
0.0
 10
100.1529278849476
 20
197.5290328330455
 30
0.0
 10
93.19095601217572
 20
199.7533309088072
 30
0.0
 10
86.08214164779957
 20
201.8155305876927
 30
0.0
 10
78.83769956279471
 20
203.7124380523157
 30
0.0
 10
71.46905376649637
 20
205.44111497116
 30
0.0
 10
63.98782045451262
 20
206.9988829999496
 30
0.0
 10
56.40579049492987
 20
208.3833279883581
 30
0.0
 10
48.73491149463361
 20
209.5923038472066
 30
0.0
 10
40.98726949038001
 20
210.6239360397996
 30
0.0
 10
33.1750703105408
 20
211.4766246682834
 30
0.0
 10
25.31062065376666
 20
212.1490471319562
 30
0.0
 10
17.40630893056623
 20
212.6401603394789
 30
0.0
 10
9.474585913260059
 20
212.9492024610806
 30
0.0
 10
1.527945239207504
 20
213.0756942102884
 30
0.0
 10
-6.421094942640259
 20
213.019439656425
 30
0.0
 10
-14.36001008541671
 20
212.7805267493459
 30
0.0
 10
-22.27629178240667
 20
212.3593273577673
 30
0.0
 10
-30.15746872992207
 20
211.7564964730526
 30
0.0
 10
-37.9911278419708
 20
210.9729706992077
 30
0.0
 10
-45.76493091893361
 20
210.0099667084948
 30
0.0
 10
-53.4666339570478
 20
208.8689791340023
 30
0.0
 10
-61.08410625768196
 20
207.5517779906033
 30
0.0
 10
-68.60534929000751
 20
206.0604056345756
 30
0.0
 10
-76.01851526046474
 20
204.3971732756966
 30
0.0
 10
-83.3119253413009
 20
202.5646570599962
 30
0.0
 10
-90.47408750959993
 20
200.5656937467556
 30
0.0
 10
-97.49371394771248
 20
198.4033760100295
 30
0.0
 10
-104.3597379561865
 20
196.0810474032344
 30
0.0
 10
-111.0613303317876
 20
193.6022970354086
 30
0.0
 10
-117.5879151665534
 20
190.9709540198601
 30
0.0
 10
-123.9291850305991
 20
188.1910817701671
 30
0.0
 10
-130.0751155111428
 20
185.2669722344547
 30
0.0
 10
-136.0159791014472
 20
182.2031401768977
 30
0.0
 10
-141.7423584432045
 20
179.0043176302927
 30
0.0
 10
-147.2451590203425
 20
175.6754486668
 30
0.0
 10
-152.5156203922011
 20
172.2216851609867
 30
0.0
 10
-157.5453168928176
 20
168.6483911496351
 30
0.0
 10
-162.3261799747847
 20
164.9611340827231
 30
0.0
 10
-166.8505173658747
 20
161.1656828560263
 30
0.0
 10
-171.1110152588681
 20
157.2679934663207
 30
0.0
 10
-175.1008202078227
 20
153.2742257721821
 30
0.0
 10
-178.8132696293761
 20
149.1906966577451
 30
0.0
 10
-182.2429778348354
 20
145.0240427156705
 30
0.0
 10
-185.3818755254941
 20
140.7805940767469
 30
0.0
 10
-188.2340854852895
 20
136.4686777376872
 30
0.0
 10
-190.7605469626906
 20
132.0899734695633
 30
0.0
 10
-192.4606551711016
 20
128.8593342887254
 30
0.0
 10
-193.2232263141768
 20
127.0762588663977
 30
0.0
 10
-193.3466248398139
 20
126.7877233242214
 30
0.0
  0
SPLINE
  5
97
330
23
100
AcDbEntity
  8
0
  6
Continuous
 62
     7
370
    25
100
AcDbSpline
210
0.0
220
0.0
230
1.0
 70
     8
 71
     3
 72
    60
 73
    56
 74
     0
 42
0.000000001
 43
0.00000001
 40
0.0
 40
0.0
 40
0.0
 40
0.0
 40
0.0070053327024229
 40
0.0262713114854229
 40
0.0455262698229426
 40
0.0647711667105297
 40
0.0840072355511292
 40
0.1032358356385661
 40
0.1224583358379571
 40
0.1416760326174341
 40
0.1608900990710029
 40
0.1801015589187342
 40
0.1993112788651017
 40
0.2185199732918492
 40
0.2377282163959892
 40
0.2569363879519364
 40
0.2761447973091878
 40
0.2953537257551351
 40
0.3145633749155884
 40
0.3337738812120424
 40
0.3529853284464969
 40
0.3721977584866633
 40
0.3914111801675622
 40
0.4106255765926876
 40
0.4298409110432133
 40
0.4490571317037997
 40
0.4682741753996099
 40
0.4874919705183609
 40
0.5067104392682169
 40
0.5259294993997439
 40
0.5451490654994399
 40
0.5643690499441631
 40
0.5835893635903383
 40
0.6028099162590949
 40
0.622030617068343
 40
0.6412513746548109
 40
0.6604720856213828
 40
0.6796926391878749
 40
0.6989129433653887
 40
0.7181329062247964
 40
0.7373524361001366
 40
0.7565714418978025
 40
0.7757898335512758
 40
0.7950075226713862
 40
0.8142244234519973
 40
0.8334404539036055
 40
0.8526555375025582
 40
0.8718696053616767
 40
0.8910825990489253
 40
0.9102944742037705
 40
0.9295052051247028
 40
0.9487147905240438
 40
0.9679232606629699
 40
0.9871306860846895
 40
1.0
 40
1.0
 40
1.0
 40
1.0
 10
188.1712869504797
 20
67.94185158860698
 30
0.0
 10
187.9326583992902
 20
67.41346892082198
 30
0.0
 10
187.0377565775045
 20
65.43193481836926
 30
0.0
 10
185.1720433272161
 20
62.04572963772581
 30
0.0
 10
182.5799787785369
 20
57.79269757301007
 30
0.0
 10
179.6728657716523
 20
53.6063202872075
 30
0.0
 10
176.4810739199717
 20
49.48945391340903
 30
0.0
 10
173.0028370833254
 20
45.44959521464211
 30
0.0
 10
169.2455245205326
 20
41.49287235019041
 30
0.0
 10
165.2145968798028
 20
37.62565337679167
 30
0.0
 10
160.9165689599272
 20
33.85410802752178
 30
0.0
 10
156.3582182991269
 20
30.18431223640629
 30
0.0
 10
151.5467950765124
 20
26.62220374586806
 30
0.0
 10
146.4899595610419
 20
23.17357566444458
 30
0.0
 10
141.195795058822
 20
19.84406326413411
 30
0.0
 10
135.6727905689077
 20
16.63912702765764
 30
0.0
 10
129.9298228676982
 20
13.56403475708431
 30
0.0
 10
123.976133339629
 20
10.62384589203661
 30
0.0
 10
117.8213145334199
 20
7.823402751320409
 30
0.0
 10
111.4752996431779
 20
5.167323347306262
 30
0.0
 10
104.9483447515364
 20
2.659991459621945
 30
0.0
 10
98.25101048023896
 20
0.3055476753787839
 30
0.0
 10
91.39414319858682
 20
-1.892118680530845
 30
0.0
 10
84.38885588596197
 20
-3.929376802515615
 30
0.0
 10
77.24650871781795
 20
-5.802860921105442
 30
0.0
 10
69.9786894225482
 20
-7.509476142865089
 30
0.0
 10
62.59719344271628
 20
-9.046403666711237
 30
0.0
 10
55.11400392511988
 20
-10.41110542007651
 30
0.0
 10
47.54127155893807
 20
-11.60132814943532
 30
0.0
 10
39.89129427855656
 20
-12.61510699203786
 30
0.0
 10
32.17649684670339
 20
-13.45076854935274
 30
0.0
 10
24.40941033362985
 20
-14.10693347763572
 30
0.0
 10
16.60265150877863
 20
-14.58251860707473
 30
0.0
 10
8.768902162311687
 20
-14.87673859795196
 30
0.0
 10
0.9208883750436436
 20
-14.98910714003186
 30
0.0
 10
-6.928638651321053
 20
-14.91943771389661
 30
0.0
 10
-14.76692240695277
 20
-14.66784412373145
 30
0.0
 10
-22.58122448094949
 20
-14.23474053314879
 30
0.0
 10
-30.35884695864799
 20
-13.62084068625436
 30
0.0
 10
-38.08715407076685
 20
-12.82715652972238
 30
0.0
 10
-45.75359025329399
 20
-11.85499680938221
 30
0.0
 10
-53.34570069098661
 20
-10.70596514303184
 30
0.0
 10
-60.85115174048931
 20
-9.381957637326119
 30
0.0
 10
-68.2577512983125
 20
-7.885160091222851
 30
0.0
 10
-75.55346879079136
 20
-6.218044607105844
 30
0.0
 10
-82.72645592166333
 20
-4.383366244064102
 30
0.0
 10
-89.76506387728097
 20
-2.384157295236833
 30
0.0
 10
-96.65787298079317
 20
-0.2237281396098578
 30
0.0
 10
-103.3936750683643
 20
2.094358835910373
 30
0.0
 10
-109.9616314212845
 20
4.566217357031458
 30
0.0
 10
-116.350774637936
 20
7.187933659808049
 30
0.0
 10
-122.5519577249002
 20
9.954491554691899
 30
0.0
 10
-128.55066971068
 20
12.86381821591327
 30
0.0
 10
-133.7157030740387
 20
15.56762203112175
 30
0.0
 10
-136.8221390049403
 20
17.33249113311831
 30
0.0
 10
-138.068453311782
 20
18.04056355451951
 30
0.0
  0
SPLINE
  5
98
330
23
100
AcDbEntity
  8
0
  6
Continuous
 62
     7
370
    25
100
AcDbSpline
210
0.0
220
0.0
230
1.0
 70
     8
 71
     3
 72
    21
 73
    17
 74
     0
 42
0.000000001
 43
0.00000001
 40
0.0
 40
0.0
 40
0.0
 40
0.0
 40
0.0417754683189549
 40
0.1211956455545814
 40
0.2006169583139774
 40
0.2800378608494462
 40
0.3594599132890092
 40
0.4388855106842527
 40
0.5183176428755479
 40
0.5977599487027174
 40
0.6772167401990754
 40
0.7566929765714615
 40
0.8361941630456957
 40
0.9157261470474208
 40
0.995294786387271
 40
1.0
 40
1.0
 40
1.0
 40
1.0
 10
-138.068453311782
 20
18.04056355451951
 30
0.0
 10
-139.0327159363032
 20
18.60436520587985
 30
0.0
 10
-141.8301574962817
 20
20.24002143789754
 30
0.0
 10
-146.2872576514939
 20
23.04337173828583
 30
0.0
 10
-151.3548369570069
 20
26.48542117831107
 30
0.0
 10
-156.1741915710208
 20
30.04271557433913
 30
0.0
 10
-160.741363201509
 20
33.70713155086538
 30
0.0
 10
-165.0480596959628
 20
37.47325619021982
 30
0.0
 10
-169.0878036014325
 20
41.33477778861525
 30
0.0
 10
-172.8539424066095
 20
45.28551108446645
 30
0.0
 10
-176.3414220346536
 20
49.31896111970654
 30
0.0
 10
-179.5417004243297
 20
53.42915159598964
 30
0.0
 10
-182.4613282266754
 20
57.60785591362519
 30
0.0
 10
-185.052656116622
 20
61.85494607477548
 30
0.0
 10
-186.7131922652336
 20
64.79526268425181
 30
0.0
 10
-187.4222367725719
 20
66.33012384981706
 30
0.0
 10
-187.4618244471716
 20
66.41581887142631
 30
0.0
  0
SPLINE
  5
99
330
23
100
AcDbEntity
  8
0
  6
Continuous
 62
     7
370
    25
100
AcDbSpline
210
0.0
220
0.0
230
1.0
 70
     8
 71
     3
 72
    81
 73
    77
 74
     0
 42
0.000000001
 43
0.00000001
 40
0.0
 40
0.0
 40
0.0
 40
0.0
 40
0.0045598495402928
 40
0.018197093200713
 40
0.0318456136366323
 40
0.0455075676085217
 40
0.0591841869218995
 40
0.0728758146854051
 40
0.0865820237093921
 40
0.100301785759774
 40
0.1140336595391388
 40
0.1277759706466082
 40
0.1415269654480484
 40
0.1552849299036499
 40
0.1690482719469903
 40
0.1828155710893313
 40
0.1965856015450555
 40
0.2103573358709865
 40
0.2241299355770012
 40
0.2379026386779458
 40
0.2516748827903875
 40
0.2654463201794651
 40
0.2792167046249664
 40
0.2929858729965082
 40
0.3067537292024373
 40
0.3205202305470038
 40
0.3342853763601107
 40
0.3480491986724719
 40
0.3618117546728626
 40
0.3755731206817692
 40
0.3893333873924275
 40
0.4030926561562254
 40
0.4168510361186472
 40
0.430608642040858
 40
0.4443655926684613
 40
0.4581220095322671
 40
0.4718780160856292
 40
0.4856337370990377
 40
0.499389298245574
 40
0.5131448258206245
 40
0.5269004298244319
 40
0.5406562117411107
 40
0.5544122987454126
 40
0.5681688179958152
 40
0.5819258963686077
 40
0.5956836600693691
 40
0.6094422340626747
 40
0.6232017412544796
 40
0.6369623013490804
 40
0.6507240292864224
 40
0.6644870331459657
 40
0.678251411379876
 40
0.6920172492113618
 40
0.7057846140042241
 40
0.7195535493786122
 40
0.733324067818999
 40
0.7470961414986858
 40
0.760869691039738
 40
0.7746445719517295
 40
0.7884205585671205
 40
0.8021973254436996
 40
0.8159743770040035
 40
0.8297509433679151
 40
0.8435262100463585
 40
0.8572991698144568
 40
0.871068609681494
 40
0.8848331096546226
 40
0.8985910597233039
 40
0.9123407023410519
 40
0.9260802074033332
 40
0.939807784595436
 40
0.953521833344192
 40
0.9672211232339949
 40
0.980904988326033
 40
0.9945735092565253
 40
1.0
 40
1.0
 40
1.0
 40
1.0
 10
-198.4971799218372
 20
-12.46533567492815
 30
0.0
 10
-198.3996266016672
 20
-12.97883183427388
 30
0.0
 10
-198.010318392375
 20
-15.02805240334165
 30
0.0
 10
-197.0086892843951
 20
-18.58769685504804
 30
0.0
 10
-195.4918681678802
 20
-23.13557916191192
 30
0.0
 10
-193.6437710279708
 20
-27.64304110999976
 30
0.0
 10
-191.4946615762077
 20
-32.10519711135755
 30
0.0
 10
-189.0401452078563
 20
-36.51436733412946
 30
0.0
 10
-186.2858321533313
 20
-40.8635628181683
 30
0.0
 10
-183.2353823341373
 20
-45.14560929747319
 30
0.0
 10
-179.8937196727684
 20
-49.35344888047344
 30
0.0
 10
-176.2661534531641
 20
-53.48012358270314
 30
0.0
 10
-172.3585821744593
 20
-57.51883550585951
 30
0.0
 10
-168.1773976909857
 20
-61.46297426995658
 30
0.0
 10
-163.729466515217
 20
-65.30614046251205
 30
0.0
 10
-159.022091621093
 20
-69.04215879134185
 30
0.0
 10
-154.0629833836255
 20
-72.66508508647377
 30
0.0
 10
-148.8602331513988
 20
-76.16920875814004
 30
0.0
 10
-143.4223037916022
 20
-79.54904495660955
 30
0.0
 10
-137.758007224287
 20
-82.79933890913199
 30
0.0
 10
-131.8764772844368
 20
-85.915072174295
 30
0.0
 10
-125.78714024559
 20
-88.89146736511472
 30
0.0
 10
-119.4997068114732
 20
-91.72398247175745
 30
0.0
 10
-113.0241725147589
 20
-94.40830506846895
 30
0.0
 10
-106.3708053004759
 20
-96.94035470087361
 30
0.0
 10
-99.55013272272153
 20
-99.31628600548927
 30
0.0
 10
-92.57292858435397
 20
-101.5324923794539
 30
0.0
 10
-85.45019892473945
 20
-103.5856100207256
 30
0.0
 10
-78.19316731767675
 20
-105.4725221727377
 30
0.0
 10
-70.81325948125897
 20
-107.1903634275246
 30
0.0
 10
-63.32208722807954
 20
-108.7365239631116
 30
0.0
 10
-55.73143180108352
 20
-110.10865361206
 30
0.0
 10
-48.05322665037362
 20
-111.3046656771868
 30
0.0
 10
-40.29953971153763
 20
-112.3227404270786
 30
0.0
 10
-32.48255524822928
 20
-113.1613282180403
 30
0.0
 10
-24.61455532195636
 20
-113.8191522007197
 30
0.0
 10
-16.7079009511937
 20
-114.2952105791259
 30
0.0
 10
-8.775013020468847
 20
-114.5887783974628
 30
0.0
 10
-0.8283529988733634
 20
-114.6994088364594
 30
0.0
 10
7.119593254453757
 20
-114.6269340353555
 30
0.0
 10
15.05633331412336
 20
-114.3714658342548
 30
0.0
 10
22.96939275393545
 20
-113.9333958837237
 30
0.0
 10
30.84633796858609
 20
-113.3133945119481
 30
0.0
 10
38.67479722477427
 20
-112.5124087982344
 30
0.0
 10
46.44247500356402
 20
-111.5316609275257
 30
0.0
 10
54.13717104990815
 20
-110.3726458797957
 30
0.0
 10
61.7467991638799
 20
-109.0371286244466
 30
0.0
 10
69.25940567080471
 20
-107.5271408374654
 30
0.0
 10
76.66318750642876
 20
-105.8449771658165
 30
0.0
 10
83.9465098506774
 20
-103.9931910720286
 30
0.0
 10
91.09792324144146
 20
-101.9745903026323
 30
0.0
 10
98.10618009846344
 20
-99.79223203752433
 30
0.0
 10
104.9602505876169
 20
-97.4494177940492
 30
0.0
 10
111.6493377588139
 20
-94.94968818011077
 30
0.0
 10
118.1628918981059
 20
-92.29681761533534
 30
0.0
 10
124.4906240484595
 20
-89.49480916825922
 30
0.0
 10
130.6225186772914
 20
-86.54788969013421
 30
0.0
 10
136.5488455058174
 20
-83.46050546056372
 30
0.0
 10
142.2601705707088
 20
-80.23731859342581
 30
0.0
 10
147.7473666660728
 20
-76.88320447731722
 30
0.0
 10
153.0016171349686
 20
-73.40325469871226
 30
0.0
 10
158.0144116586235
 20
-69.80278959200967
 30
0.0
 10
162.7775770814615
 20
-66.08735211129202
 30
0.0
 10
167.283296256652
 20
-62.26270791500562
 30
0.0
 10
171.5241355372682
 20
-58.33483796724708
 30
0.0
 10
175.4930473195361
 20
-54.30995508593116
 30
0.0
 10
179.1833978074808
 20
-50.19450877922165
 30
0.0
 10
182.5889809307812
 20
-45.99518561902303
 30
0.0
 10
185.7041084322434
 20
-41.7189099100832
 30
0.0
 10
188.5234393139387
 20
-37.37281436929764
 30
0.0
 10
191.042797687401
 20
-32.96427983623746
 30
0.0
 10
193.2563097444508
 20
-28.50066226428529
 30
0.0
 10
195.1672398929971
 20
-23.99012199791855
 30
0.0
 10
196.747737051786
 20
-19.43828441659872
 30
0.0
 10
197.8197774214206
 20
-15.7789068703152
 30
0.0
 10
198.2530337410208
 20
-13.63039751379897
 30
0.0
 10
198.376158117586
 20
-13.0198262120124
 30
0.0
  0
SPLINE
  5
9A
330
23
100
AcDbEntity
  8
0
  6
Continuous
 62
     7
370
    25
100
AcDbSpline
210
0.0
220
0.0
230
1.0
 70
     8
 71
     3
 72
    35
 73
    31
 74
     0
 42
0.000000001
 43
0.00000001
 40
0.0
 40
0.0
 40
0.0
 40
0.0
 40
0.0167922222676607
 40
0.0591552996490791
 40
0.0963933022755665
 40
0.135913048314047
 40
0.1737963931790937
 40
0.2105790692583279
 40
0.2467455628388438
 40
0.2826113733175965
 40
0.3183681576131469
 40
0.3541141973741674
 40
0.3899052942240369
 40
0.4257779981335942
 40
0.4617456314730449
 40
0.497807513134162
 40
0.5339547642757648
 40
0.5701738864753414
 40
0.6064489058912733
 40
0.6427626031001931
 40
0.6790971712993672
 40
0.715434531431899
 40
0.7517510084506244
 40
0.7880277250983545
 40
0.8242464837053103
 40
0.8603894854949554
 40
0.8964399982226797
 40
0.9323836010350791
 40
0.968210342221623
 40
1.0
 40
1.0
 40
1.0
 40
1.0
 10
39.96426621556053
 20
16.82548701129381
 30
0.0
 10
39.97408594324038
 20
16.59120039856413
 30
0.0
 10
40.00867868052762
 20
15.76586027628129
 30
0.0
 10
39.75842163671215
 20
14.41468562390898
 30
0.0
 10
39.22094610837195
 20
12.70845037054011
 30
0.0
 10
38.39231164896051
 20
11.0294659043427
 30
0.0
 10
37.25528795258508
 20
9.333959668712733
 30
0.0
 10
35.84627326622871
 20
7.689636677848326
 30
0.0
 10
34.17291752505442
 20
6.10191916351728
 30
0.0
 10
32.24028446824725
 20
4.579681083389444
 30
0.0
 10
30.05709307765544
 20
3.135560131656827
 30
0.0
 10
27.63585807586932
 20
1.783940345015084
 30
0.0
 10
24.99266420705803
 20
0.5393386714411739
 30
0.0
 10
22.1463393265792
 20
-0.5845519099210855
 30
0.0
 10
19.11815784418744
 20
-1.575216259485722
 30
0.0
 10
15.93177520950329
 20
-2.421503099366826
 30
0.0
 10
12.61276992754134
 20
-3.113872363819207
 30
0.0
 10
9.188225783336813
 20
-3.644534755009539
 30
0.0
 10
5.686359659742696
 20
-4.007526036297532
 30
0.0
 10
2.136190081864223
 20
-4.198744064791073
 30
0.0
 10
-1.432762965239746
 20
-4.215967234117469
 30
0.0
 10
-4.990573298666933
 20
-4.058871356143926
 30
0.0
 10
-8.507350683502167
 20
-3.729077305299699
 30
0.0
 10
-11.95349583553645
 20
-3.230144895654694
 30
0.0
 10
-15.30031365702511
 20
-2.567609256127437
 30
0.0
 10
-18.51950006512504
 20
-1.748738624433151
 30
0.0
 10
-21.58579991615386
 20
-0.7835173151346103
 30
0.0
 10
-24.46856725928501
 20
0.3189520836845913
 30
0.0
 10
-27.06655448873512
 20
1.492706482026852
 30
0.0
 10
-28.59936283480328
 20
2.339802801805506
 30
0.0
 10
-29.32000832180454
 20
2.738062728736203
 30
0.0
  0
SPLINE
  5
9B
330
23
100
AcDbEntity
  8
0
  6
Continuous
 62
     7
370
    25
100
AcDbSpline
210
0.0
220
0.0
230
1.0
 70
     8
 71
     3
 72
    17
 73
    13
 74
     0
 42
0.000000001
 43
0.00000001
 40
0.0
 40
0.0
 40
0.0
 40
0.0
 40
0.056614178162458
 40
0.1646801348423079
 40
0.2725819606316158
 40
0.3805238660631204
 40
0.4888792256608221
 40
0.5982913999590685
 40
0.7097423695019888
 40
0.8246066237697732
 40
0.9444680395916484
 40
1.0
 40
1.0
 40
1.0
 40
1.0
 10
-29.32000832180454
 20
2.738062728736203
 30
0.0
 10
-29.72547654649751
 20
2.978452216163545
 30
0.0
 10
-30.90490834404303
 20
3.677700610984533
 30
0.0
 10
-32.67550397009528
 20
4.902473937247582
 30
0.0
 10
-34.53304295614713
 20
6.419466719566786
 30
0.0
 10
-36.11836033486301
 20
7.983672632674972
 30
0.0
 10
-37.43217282680259
 20
9.575855024599164
 30
0.0
 10
-38.4739348773077
 20
11.18299190403127
 30
0.0
 10
-39.25444732444501
 20
12.79910031746253
 30
0.0
 10
-39.75959888153474
 20
14.42999953164543
 30
0.0
 10
-40.00399154330626
 20
15.76944253577388
 30
0.0
 10
-39.97276340495953
 20
16.57480762166735
 30
0.0
 10
-39.96287614593317
 20
16.82979730842381
 30
0.0
  0
SPLINE
  5
9C
330
23
100
AcDbEntity
  8
0
  6
Continuous
 62
     7
370
    25
100
AcDbSpline
210
0.0
220
0.0
230
1.0
 70
     8
 71
     3
 72
    12
 73
     8
 74
     0
 42
0.000000001
 43
0.00000001
 40
0.0
 40
0.0
 40
0.0
 40
0.0
 40
0.2175807298485374
 40
0.48205064321109
 40
0.7374873207296224
 40
0.9836334274655106
 40
1.0
 40
1.0
 40
1.0
 40
1.0
 10
22.47847913806503
 20
4.089261233999643
 30
0.0
 10
22.46690286752234
 20
3.708755447547
 30
0.0
 10
22.44125561160507
 20
2.865743939897754
 30
0.0
 10
22.03631306804233
 20
1.561005504512547
 30
0.0
 10
21.2904352511018
 20
0.1985376503215036
 30
0.0
 10
20.64514066333025
 20
-0.730010257225612
 30
0.0
 10
20.17634628501701
 20
-1.178198541768094
 30
0.0
 10
20.14711890743758
 20
-1.206141215198041
 30
0.0
  0
SPLINE
  5
9D
330
23
100
AcDbEntity
  8
0
  6
Continuous
 62
     7
370
    25
100
AcDbSpline
210
0.0
220
0.0
230
1.0
 70
     8
 71
     3
 72
    12
 73
     8
 74
     0
 42
0.000000001
 43
0.00000001
 40
0.0
 40
0.0
 40
0.0
 40
0.0
 40
0.0086594331039978
 40
0.2559762633868478
 40
0.5057999255958838
 40
0.7611189062280999
 40
1.0
 40
1.0
 40
1.0
 40
1.0
 10
-20.15722748319174
 20
-1.200721123587774
 30
0.0
 10
-20.17202215684153
 20
-1.186597046214724
 30
0.0
 10
-20.60935855443456
 20
-0.7690837394751515
 30
0.0
 10
-21.21840219013143
 20
0.0969656527336007
 30
0.0
 10
-21.95058125484542
 20
1.375465151973218
 30
0.0
 10
-22.3858094151545
 20
2.636207455895358
 30
0.0
 10
-22.4516655843541
 20
3.46280863459214
 30
0.0
 10
-22.48349842806419
 20
3.862362183664987
 30
0.0
  0
SPLINE
  5
9E
330
23
100
AcDbEntity
  8
0
  6
Continuous
 62
     7
370
    25
100
AcDbSpline
210
0.0
220
0.0
230
1.0
 70
     8
 71
     3
 72
    35
 73
    31
 74
     0
 42
0.000000001
 43
0.00000001
 40
0.0
 40
0.0
 40
0.0
 40
0.0
 40
0.0004187044281533
 40
0.0441596910855516
 40
0.0863257605341418
 40
0.127009055467028
 40
0.1668385092926772
 40
0.2062940523312941
 40
0.2456461812943277
 40
0.2850022674641567
 40
0.3244280979317895
 40
0.363946340342664
 40
0.4035529911893526
 40
0.4432312141478401
 40
0.4829584318334191
 40
0.5227097042213646
 40
0.5624582182470774
 40
0.6021699328213463
 40
0.6418184756583337
 40
0.6813781799993446
 40
0.7208261037652355
 40
0.7601465729355387
 40
0.7703635455347767
 40
0.7908591859355333
 40
0.8299759323871746
 40
0.8690589286270877
 40
0.9082255712855454
 40
0.947749405798991
 40
0.9880839824468592
 40
1.0
 40
1.0
 40
1.0
 40
1.0
 10
-22.36630945521701
 20
2.909025856225274
 30
0.0
 10
-22.36588333081819
 20
2.913451832806432
 30
0.0
 10
-22.32094107429887
 20
3.380248325592437
 30
0.0
 10
-21.94888582850962
 20
4.304285291338618
 30
0.0
 10
-21.21907474654642
 20
5.66603852729549
 30
0.0
 10
-20.16423032412982
 20
6.973440859440433
 30
0.0
 10
-18.84896600091585
 20
8.208792447286548
 30
0.0
 10
-17.27553460162837
 20
9.35996936705162
 30
0.0
 10
-15.46335037089254
 20
10.41151872932247
 30
0.0
 10
-13.43297933211586
 20
11.34679209218468
 30
0.0
 10
-11.21092413061827
 20
12.14972429912718
 30
0.0
 10
-8.827009609172611
 20
12.80618106870686
 30
0.0
 10
-6.314536505464226
 20
13.30434599119711
 30
0.0
 10
-3.709405181663551
 20
13.63514619159764
 30
0.0
 10
-1.049300294116522
 20
13.79249398560396
 30
0.0
 10
1.627032591736455
 20
13.77339882456885
 30
0.0
 10
4.280293449938716
 20
13.57803870747815
 30
0.0
 10
6.871446456120215
 20
13.20982180860111
 30
0.0
 10
9.362356266528575
 20
12.67541396119219
 30
0.0
 10
11.71667473576398
 20
11.98462167603012
 30
0.0
 10
13.8999720660414
 20
11.15064146913399
 30
0.0
 10
15.39516498249996
 20
10.42528405359289
 30
0.0
 10
16.4870381403253
 20
9.81336589547805
 30
0.0
 10
17.52256663700784
 20
9.178715530944604
 30
0.0
 10
18.83224148473134
 20
8.221152510545672
 30
0.0
 10
20.12411376866458
 20
7.013715719187151
 30
0.0
 10
21.14689079079969
 20
5.760212772905539
 30
0.0
 10
21.87230745804222
 20
4.480048615527546
 30
0.0
 10
22.27210415511556
 20
3.496741906879368
 30
0.0
 10
22.34103704202267
 20
2.944181423249912
 30
0.0
 10
22.35675754248653
 20
2.818167154459573
 30
0.0
  0
LWPOLYLINE
  5
A1
330
23
100
AcDbEntity
  8
0
  6
Continuous
 62
     7
370
    25
100
AcDbPolyline
 90
      150
 70
   128
 43
0.0
 10
-140.7142494561
 20
16.7522902999
 10
-134.6571322488
 20
13.4000195765
 10
-128.3605995745
 20
10.1981376792
 10
-121.8358464383
 20
7.1523374371
 10
-115.0944736133
 20
4.2680341719
 10
-108.1484670144
 20
1.5503560696
 10
-101.0101763878
 20
-0.9958649374
 10
-93.6922933537
 20
-3.366101761
 10
-86.2078288412
 20
-5.5561402066
 10
-78.570089955
 20
-7.5620864659
 10
-70.7926563161
 20
-9.3803740395
 10
-62.8893559177
 20
-11.0077700786
 10
-54.8742405395
 20
-12.4413811323
 10
-46.7615607641
 20
-13.6786582925
 10
-38.5657406402
 20
-14.7174017255
 10
-30.3013520368
 20
-15.5557645836
 10
-21.9830887353
 20
-16.192256288
 10
-13.6257403042
 20
-16.6257451798
 10
-5.2441658041
 20
-16.8554605315
 10
3.1467326314
 20
-16.8809939176
 10
11.5320362911
 20
-16.7022999407
 10
19.8968364112
 20
-16.3196963122
 10
28.2262606822
 20
-15.7338632874
 10
36.5054996917
 20
-14.9458424559
 10
44.719833255
 20
-13.9570348901
 10
52.8546565868
 20
-12.7691986537
 10
60.8955062679
 20
-11.3844456763
 10
68.8280859612
 20
-9.805237998
 10
76.6382918294
 20
-8.0343833926
 10
84.3122376115
 20
-6.0750303748
 10
91.8362793119
 20
-3.9306626028
 10
99.197039459
 20
-1.6050926843
 10
106.38143089
 20
0.8975446022
 10
113.3766800191
 20
3.5727996591
 10
120.1703495486
 20
6.4159159804
 10
126.7503605819
 20
9.4218386092
 10
133.1050140996
 20
12.5852231245
 10
139.2230117596
 20
15.9004451443
 10
145.0934759854
 20
19.3616103247
 10
150.7059693058
 20
22.9625648404
 10
156.0505129125
 20
26.6969063256
 10
161.117604402
 20
30.5579952575
 10
165.8982346705
 20
34.5389667609
 10
170.3839039319
 20
38.6327428136
 10
174.56663683
 20
42.8320448313
 10
178.4389966182
 20
47.1294066082
 10
181.9940983822
 20
51.517187592
 10
185.2256212807
 20
55.987586468
 10
188.1278197841
 20
60.5326550304
 10
190.6955338893
 20
65.1443123129
 10
192.9241982942
 20
69.8143589574
 10
194.809850515
 20
74.5344917912
 10
196.3491379308
 20
79.2963185905
 10
197.5393237447
 20
84.0913730009
 10
198.3782918497
 20
88.9111295908
 10
198.8645505913
 20
93.7470190087
 10
198.9972354191
 20
98.5904432198
 10
198.7761104243
 20
103.4327907926
 10
198.2015687592
 20
108.2654522098
 10
197.2746319377
 20
113.0798351757
 10
195.9969480198
 20
117.8673798932
 10
194.3707886809
 20
122.6195742825
 10
192.3990451728
 20
127.3279691152
 10
190.0852231837
 20
131.9841930374
 10
187.4334366045
 20
136.5799674526
 10
184.448400215
 20
141.1071212419
 10
181.1354213011
 20
145.5576052908
 10
177.5003902182
 20
149.9235068012
 10
173.549769919
 20
154.1970633596
 10
169.2905844623
 20
158.3706767382
 10
164.7304065244
 20
162.4369264049
 10
159.8773439351
 20
166.3885827162
 10
154.7400252627
 20
170.2186197712
 10
149.3275844724
 20
173.920227904
 10
143.6496446862
 20
177.4868257902
 10
137.7163010741
 20
180.9120721491
 10
131.5381029042
 20
184.1898770176
 10
125.1260347877
 20
187.3144125783
 10
118.4914971475
 20
190.2801235209
 10
111.6462859495
 20
193.0817369197
 10
104.6025717294
 20
195.7142716082
 10
97.372877954
 20
198.1730470358
 10
89.9700587551
 20
200.4536915896
 10
82.4072760749
 20
202.5521503668
 10
74.6979762652
 20
204.4646923843
 10
66.8558661796
 20
206.187917212
 10
58.8948888038
 20
207.7187610193
 10
50.8291984649
 20
209.0545020216
 10
42.673135666
 20
210.1927653201
 10
34.4412015892
 20
211.1315271244
 10
26.1480323129
 20
211.8691183501
 10
17.8083727893
 20
212.404227587
 10
9.4370506287
 20
212.7359034304
 10
1.0489497366
 20
212.8635561727
 10
-7.3410161499
 20
212.7869588521
 10
-15.7179299776
 20
212.5062476557
 10
-24.0668978994
 20
212.0219216778
 10
-32.373075755
 20
211.3348420323
 10
-40.6216954633
 20
210.4462303218
 10
-48.7980912795
 20
209.3576664655
 10
-56.8877258702
 20
208.0710858902
 10
-64.8762161603
 20
206.5887760891
 10
-72.7493589055
 20
204.9133725551
 10
-80.4931559455
 20
203.0478540944
 10
-88.0938390916
 20
200.9955375308
 10
-95.5378946067
 20
198.7600718083
 10
-102.8120872316
 20
196.3454315034
 10
-109.9034837173
 20
193.7559097583
 10
-116.7994758197
 20
190.9961106482
 10
-123.4878027165
 20
188.0709409953
 10
-129.9565728064
 20
184.9856016445
 10
-136.1942848524
 20
181.7455782165
 10
-142.1898484301
 20
178.3566313547
 10
-147.9326036462
 20
174.824786483
 10
-153.4123400915
 20
171.1563230926
 10
-158.6193149947
 20
167.3577635777
 10
-163.5442705442
 20
163.4358616384
 10
-168.178450349
 20
159.3975902732
 10
-172.5136150064
 20
155.2501293813
 10
-176.5420567518
 20
151.0008529967
 10
-180.2566131629
 20
146.6573161778
 10
-183.6506798938
 20
142.2272415746
 10
-186.7182224179
 20
137.7185056981
 10
-189.4537867565
 20
133.139124916
 10
-191.8525091759
 20
128.4972412003
 10
-193.9101248353
 20
123.8011076509
 10
-195.6229753691
 20
119.0590738219
 10
-196.9880153916
 20
114.2795708762
 10
-198.0028179113
 20
109.4710965958
 10
-198.6655786466
 20
104.6422002725
 10
-198.9751192329
 20
99.8014675076
 10
-198.9308893184
 20
94.9575049474
 10
-198.5329675423
 20
90.1189249806
 10
-197.782061395
 20
85.2943304257
 10
-196.6795059602
 20
80.4922992359
 10
-195.2272615412
 20
75.7213692472
 10
-193.4279101756
 20
70.9900229992
 10
-191.2846510445
 20
66.3066726528
 10
-188.8012947844
 20
61.679645034
 10
-185.9822567121
 20
57.1171668291
 10
-182.8325489744
 20
52.6273499578
 10
-179.3577716367
 20
48.2181771507
 10
-175.5641027264
 20
43.8974877561
 10
-171.4582872483
 20
39.672963802
 10
-167.0476251924
 20
35.552116338
 10
-162.3399585551
 20
31.5422720804
 10
-157.3436573957
 20
27.6505603859
 10
-152.0676049555
 20
23.883900576
 10
-146.521181863
 20
20.2489896344
 10
-140.7142494561
 20
16.7522902999
  0
LWPOLYLINE
  5
A4
330
23
100
AcDbEntity
  8
0
  6
Continuous
 62
     7
370
    25
100
AcDbPolyline
 90
      149
 70
   128
 43
0.0
 10
-138.5684126781
 20
17.991055504
 10
-144.3245680144
 20
21.4581675585
 10
-149.8206407241
 20
25.0631859526
 10
-155.0467265127
 20
28.7996141997
 10
-159.9934076205
 20
32.6607190034
 10
-164.6517697936
 20
36.639542392
 10
-169.0134183487
 20
40.7289142566
 10
-173.0704933002
 20
44.921465273
 10
-176.8156835248
 20
49.2096401806
 10
-180.2422399367
 20
53.5857113986
 10
-183.3439876494
 20
58.0417929507
 10
-186.1153371041
 20
62.5698546769
 10
-188.5512941417
 20
67.1617367039
 10
-190.6474690029
 20
71.8091641498
 10
-192.4000842391
 20
76.5037620364
 10
-193.8059815189
 20
81.2370703808
 10
-194.8626273206
 20
86.0005594415
 10
-195.568117497
 20
90.7856450894
 10
-195.9211807071
 20
95.5837042765
 10
-195.9211807071
 20
100.386090576
 10
-195.568117497
 20
105.1841497632
 10
-194.8626273206
 20
109.969235411
 10
-193.8059815189
 20
114.7327244718
 10
-192.4000842391
 20
119.4660328162
 10
-190.6474690029
 20
124.1606307028
 10
-188.5512941417
 20
128.8080581487
 10
-186.1153371041
 20
133.3999401757
 10
-183.3439876494
 20
137.9280019018
 10
-180.2422399367
 20
142.384083454
 10
-176.8156835248
 20
146.760154672
 10
-173.0704933002
 20
151.0483295796
 10
-169.0134183487
 20
155.2408805959
 10
-164.6517697936
 20
159.3302524606
 10
-159.9934076205
 20
163.3090758492
 10
-155.0467265127
 20
167.1701806529
 10
-149.8206407241
 20
170.9066088999
 10
-144.3245680144
 20
174.5116272941
 10
-138.5684126781
 20
177.9787393486
 10
-132.5625476963
 20
181.301697093
 10
-126.3177960435
 20
184.4745123331
 10
-119.8454111844
 20
187.4914674412
 10
-113.1570567939
 20
190.3471256603
 10
-106.2647857387
 20
193.0363409013
 10
-99.181018357
 20
195.5542670166
 10
-91.9185200766
 20
197.8963665331
 10
-84.4903784102
 20
200.0584188292
 10
-76.9099793711
 20
202.0365277405
 10
-69.1909833508
 20
203.8271285811
 10
-61.3473005019
 20
205.4269945672
 10
-53.3930656709
 20
206.8332426321
 10
-45.3426129268
 20
208.0433386219
 10
-37.2104497294
 20
209.0551018617
 10
-29.0112307865
 20
209.8667090858
 10
-20.7597316448
 20
210.4766977232
 10
-12.4708220636
 20
210.883968533
 10
-4.1594392181
 20
211.0877875858
 10
4.1594392181
 20
211.0877875858
 10
12.4708220636
 20
210.883968533
 10
20.7597316448
 20
210.4766977232
 10
29.0112307865
 20
209.8667090858
 10
37.2104497294
 20
209.0551018617
 10
45.3426129268
 20
208.0433386219
 10
53.3930656709
 20
206.8332426321
 10
61.3473005019
 20
205.4269945672
 10
69.1909833508
 20
203.8271285811
 10
76.9099793711
 20
202.0365277405
 10
84.4903784102
 20
200.0584188292
 10
91.9185200766
 20
197.8963665331
 10
99.181018357
 20
195.5542670166
 10
106.2647857387
 20
193.0363409013
 10
113.1570567939
 20
190.3471256603
 10
119.8454111844
 20
187.4914674412
 10
126.3177960435
 20
184.4745123331
 10
132.5625476963
 20
181.301697093
 10
138.5684126781
 20
177.9787393486
 10
144.3245680144
 20
174.5116272941
 10
149.8206407241
 20
170.9066088999
 10
155.0467265127
 20
167.1701806529
 10
159.9934076205
 20
163.3090758492
 10
164.6517697936
 20
159.3302524606
 10
169.0134183487
 20
155.2408805959
 10
173.0704933002
 20
151.0483295796
 10
176.8156835248
 20
146.760154672
 10
180.2422399367
 20
142.384083454
 10
183.3439876494
 20
137.9280019018
 10
186.1153371041
 20
133.3999401757
 10
188.5512941417
 20
128.8080581487
 10
190.6474690029
 20
124.1606307028
 10
192.4000842391
 20
119.4660328162
 10
193.8059815189
 20
114.7327244718
 10
194.8626273206
 20
109.969235411
 10
195.568117497
 20
105.1841497632
 10
195.9211807071
 20
100.386090576
 10
195.9211807071
 20
95.5837042765
 10
195.568117497
 20
90.7856450894
 10
194.8626273206
 20
86.0005594415
 10
193.8059815189
 20
81.2370703808
 10
192.4000842391
 20
76.5037620364
 10
190.6474690029
 20
71.8091641498
 10
188.5512941417
 20
67.1617367039
 10
186.1153371041
 20
62.5698546769
 10
183.3439876494
 20
58.0417929507
 10
180.2422399367
 20
53.5857113986
 10
176.8156835248
 20
49.2096401806
 10
173.0704933002
 20
44.921465273
 10
169.0134183487
 20
40.7289142566
 10
164.6517697936
 20
36.639542392
 10
159.9934076205
 20
32.6607190034
 10
155.0467265127
 20
28.7996141997
 10
149.8206407241
 20
25.0631859526
 10
144.3245680143
 20
21.4581675585
 10
138.5684126781
 20
17.991055504
 10
132.5625476963
 20
14.6680977596
 10
126.3177960435
 20
11.4952825195
 10
119.8454111844
 20
8.4783274114
 10
113.1570567939
 20
5.6226691923
 10
106.2647857386
 20
2.9334539513
 10
99.181018357
 20
0.415527836
 10
91.9185200766
 20
-1.9265716805
 10
84.4903784102
 20
-4.0886239766
 10
76.9099793711
 20
-6.0667328879
 10
69.1909833508
 20
-7.8573337285
 10
61.3473005019
 20
-9.4571997146
 10
53.3930656709
 20
-10.8634477795
 10
45.3426129268
 20
-12.0735437693
 10
37.2104497294
 20
-13.0853070091
 10
29.0112307865
 20
-13.8969142333
 10
20.7597316448
 20
-14.5069028706
 10
12.4708220636
 20
-14.9141736804
 10
4.1594392181
 20
-15.1179927332
 10
-4.1594392181
 20
-15.1179927332
 10
-12.4708220636
 20
-14.9141736804
 10
-20.7597316448
 20
-14.5069028706
 10
-29.0112307865
 20
-13.8969142333
 10
-37.2104497294
 20
-13.0853070091
 10
-45.3426129268
 20
-12.0735437693
 10
-53.3930656709
 20
-10.8634477795
 10
-61.3473005019
 20
-9.4571997146
 10
-69.1909833508
 20
-7.8573337285
 10
-76.9099793711
 20
-6.0667328879
 10
-84.4903784102
 20
-4.0886239766
 10
-91.9185200766
 20
-1.9265716805
 10
-99.181018357
 20
0.415527836
 10
-106.2647857387
 20
2.9334539513
 10
-113.1570567939
 20
5.6226691923
 10
-119.8454111844
 20
8.4783274114
 10
-126.3177960435
 20
11.4952825195
 10
-132.5625476963
 20
14.6680977596
 10
-138.5684126781
 20
17.991055504
  0
LWPOLYLINE
  5
A7
330
23
100
AcDbEntity
  8
0
  6
Continuous
 62
     7
370
    25
100
AcDbPolyline
 90
       72
 70
   128
 43
0.0
 10
-31.733954179
 20
2.5388793666
 10
-34.4144237596
 20
4.2296573974
 10
-36.8255538136
 20
6.0505786769
 10
-38.948473979
 20
7.9873920273
 10
-40.7665695272
 20
10.024939258
 10
-42.2656113956
 20
12.1472737994
 10
-43.4338675489
 20
14.337785506
 10
-44.2621947988
 20
16.5793306539
 10
-44.7441103616
 20
18.8543661129
 10
-44.8758425944
 20
21.1450866461
 10
-44.6563605141
 20
23.4335642593
 10
-44.0873818653
 20
25.7018885125
 10
-43.1733596776
 20
27.9323066928
 10
-41.9214474139
 20
30.1073627539
 10
-40.3414429849
 20
32.210033933
 10
-38.4457120676
 20
34.2238639773
 10
-36.2490913267
 20
36.1330919362
 10
-33.7687722979
 20
37.9227755122
 10
-31.0241668405
 20
39.578908005
 10
-28.0367552134
 20
41.0885279322
 10
-24.8299179631
 20
42.4398204711
 10
-21.4287529391
 20
43.6222099254
 10
-17.8598788692
 20
44.6264424945
 10
-14.1512270319
 20
45.4446586971
 10
-10.331822656
 20
46.0704548818
 10
-6.4315577595
 20
46.4989333451
 10
-2.4809572033
 20
46.726740662
 10
1.4890602069
 20
46.7520939315
 10
5.447423702
 20
46.5747947297
 10
9.3631537207
 20
46.1962306635
 10
13.2056043665
 20
45.6193645097
 10
16.9447032534
 20
44.8487110284
 10
20.5511868628
 20
43.8903016277
 10
23.9968295706
 20
42.7516371608
 10
27.254664551
 20
41.441629221
 10
30.2991948281
 20
39.9705303965
 10
33.1065928244
 20
38.3498540303
 10
35.6548868443
 20
36.5922841123
 10
37.924133032
 20
34.7115760101
 10
39.8965714592
 20
32.7224488146
 10
41.556765121
 20
30.6404701431
 10
42.891720751
 20
28.4819343014
 10
43.8909905114
 20
26.2637347593
 10
44.5467537614
 20
24.0032319356
 10
44.8538782645
 20
21.71811733
 10
44.8099603551
 20
19.4262750623
 10
44.4153437503
 20
17.1456419059
 10
43.6731168601
 20
14.8940669072
 10
42.5890886162
 20
12.6891716936
 10
41.1717430096
 20
10.5482125594
 10
39.4321726911
 20
8.4879454129
 10
37.3839921573
 20
6.5244946378
 10
35.0432311977
 20
4.6732268985
 10
32.4282094406
 20
2.9486308753
 10
29.5593929769
 20
1.3642038702
 10
26.459234185
 20
-0.0676538272
 10
23.1519960108
 20
-1.335735989
 10
19.6635620773
 20
-2.430118153
 10
16.0212341096
 20
-3.3422352949
 10
12.2535182626
 20
-4.0649488614
 10
8.3899020213
 20
-4.5926026389
 10
4.4606234213
 20
-4.9210670213
 10
0.496434395
 20
-5.0477713293
 10
-3.4716399035
 20
-4.97172393
 10
-7.4125439127
 20
-4.6935199973
 10
-11.2954347156
 20
-4.2153368543
 10
-15.0899234268
 20
-3.5409169325
 10
-18.7663130276
 20
-2.675538482
 10
-22.2958307846
 20
-1.6259742626
 10
-25.6508534359
 20
-0.4004385373
 10
-28.8051233804
 20
0.991477215
 10
-31.733954179
 20
2.5388793666
  0
LWPOLYLINE
  5
A9
330
23
100
AcDbEntity
  8
0
  6
Continuous
 62
     8
370
    25
100
AcDbPolyline
 90
       14
 70
   128
 43
0.0
 10
-141.4213562373
 20
15.5275454321
 10
-147.2194174239
 20
19.0179206336
 10
-152.7592057269
 20
22.6453982556
 10
-158.0310024751
 20
26.4036144695
 10
-163.0255591457
 20
30.2859760872
 10
-167.7341135891
 20
34.2856721271
 10
-172.1484054008
 20
38.3956857633
 10
-176.260690413
 20
42.6088066353
 10
-180.0637542804
 20
46.9176434974
 10
-183.5509251368
 20
51.3146371856
 10
-186.7160852994
 20
55.7920738788
 10
-189.5536820019
 20
60.3420986318
 10
-192.0587371354
 20
64.9567291549
 10
-192.8809071579
 20
66.6377731782
  0
LWPOLYLINE
  5
AA
330
23
100
AcDbEntity
  8
0
  6
Continuous
 62
     8
370
    25
100
AcDbPolyline
 90
       51
 70
   128
 43
0.0
 10
192.8932846418
 20
66.6638449498
 10
190.8480657033
 20
62.6418416581
 10
188.1761537908
 20
58.0585088194
 10
185.174116962
 20
53.5437879434
 10
181.8472218094
 20
49.1055993846
 10
178.2013048377
 20
44.7517292338
 10
174.242762224
 20
40.4898156587
 10
169.9785385974
 20
36.3273355039
 10
165.4161148549
 20
32.2715911741
 10
160.5634950382
 20
28.3296978229
 10
155.4291922914
 20
24.5085708708
 10
150.0222139261
 20
20.8149138729
 10
144.3520456197
 20
17.2552067585
 10
138.4286347741
 20
13.8356944638
 10
132.2623730647
 20
10.562375975
 10
125.86407821
 20
7.4409938052
 10
119.2449749931
 20
4.4770239193
 10
112.4166755704
 20
1.6756661277
 10
105.3911590993
 20
-0.9581650361
 10
98.180750723
 20
-3.4198489374
 10
90.7980999479
 20
-5.705066946
 10
83.2561584521
 20
-7.8098100131
 10
75.5681573637
 20
-9.730385704
 10
67.7475840491
 20
-11.4634246766
 10
59.8081584512
 20
-13.0058865914
 10
51.7638090205
 20
-14.3550654461
 10
43.6286482793
 20
-15.5085943227
 10
35.4169480639
 20
-16.4644495394
 10
27.1431144869
 20
-17.2209542015
 10
18.8216626637
 20
-17.7767811426
 10
10.4671912486
 20
-18.1309552535
 10
2.0943568232
 20
-18.2828551924
 10
-6.2821518156
 20
-18.2322144752
 10
-14.6476394255
 20
-17.9791219429
 10
-22.9874300986
 20
-17.5240216059
 10
-31.286893008
 20
-16.8677118647
 10
-39.5314680758
 20
-16.0113441098
 10
-47.7066915157
 20
-14.956420701
 10
-55.7982212078
 20
-13.7047923325
 10
-63.7918618596
 20
-12.2586547859
 10
-71.6735899091
 20
-10.6205450777
 10
-79.429578127
 20
-8.793337009
 10
-87.0462198745
 20
-6.7802361237
 10
-94.5101529738
 20
-4.5847740847
 10
-101.8082831501
 20
-2.2108024786
 10
-108.927807003
 20
0.3375139419
 10
-115.8562344685
 20
3.0557045637
 10
-122.5814107306
 20
5.9390007569
 10
-129.0915375448
 20
8.9823442403
 10
-135.3751939365
 20
12.1803959552
 10
-141.4213562373
 20
15.5275454321
  0
LWPOLYLINE
  5
AB
330
23
100
AcDbEntity
  8
0
  6
Continuous
 62
     8
370
    25
100
AcDbPolyline
 90
       71
 70
   128
 43
0.0
 10
-198.5599364278
 20
-12.1971663229
 10
-197.537668119
 20
-16.4284572591
 10
-196.0542349243
 20
-21.1879491371
 10
-194.2268559819
 20
-25.9074051725
 10
-192.0587371354
 20
-30.5785458357
 10
-189.5536820019
 20
-35.1931763588
 10
-186.7160852994
 20
-39.7432011118
 10
-183.5509251368
 20
-44.2206378051
 10
-180.0637542804
 20
-48.6176314933
 10
-176.260690413
 20
-52.9264683553
 10
-172.1484054008
 20
-57.1395892273
 10
-167.7341135891
 20
-61.2496028635
 10
-163.0255591457
 20
-65.2492989034
 10
-158.0310024751
 20
-69.1316605211
 10
-152.7592057269
 20
-72.8898767351
 10
-147.2194174239
 20
-76.517354357
 10
-141.4213562373
 20
-80.0077295585
 10
-135.3751939365
 20
-83.3548790355
 10
-129.0915375448
 20
-86.5529307503
 10
-122.5814107306
 20
-89.5962742337
 10
-115.8562344685
 20
-92.4795704269
 10
-108.927807003
 20
-95.1977610488
 10
-101.8082831501
 20
-97.7460774692
 10
-94.5101529738
 20
-100.1200490754
 10
-87.0462198745
 20
-102.3155111143
 10
-79.429578127
 20
-104.3286119996
 10
-71.6735899091
 20
-106.1558200683
 10
-63.7918618596
 20
-107.7939297765
 10
-55.7982212078
 20
-109.2400673232
 10
-47.7066915157
 20
-110.4916956916
 10
-39.5314680758
 20
-111.5466191004
 10
-31.286893008
 20
-112.4029868554
 10
-22.9874300986
 20
-113.0592965965
 10
-14.6476394255
 20
-113.5143969336
 10
-6.2821518156
 20
-113.7674894658
 10
2.0943568233
 20
-113.818130183
 10
10.4671912486
 20
-113.6662302441
 10
18.8216626637
 20
-113.3120561332
 10
27.1431144869
 20
-112.7562291921
 10
35.4169480639
 20
-111.9997245301
 10
43.6286482793
 20
-111.0438693133
 10
51.7638090205
 20
-109.8903404368
 10
59.8081584512
 20
-108.541161582
 10
67.7475840491
 20
-106.9986996672
 10
75.5681573637
 20
-105.2656606947
 10
83.2561584521
 20
-103.3450850037
 10
90.7980999479
 20
-101.2403419366
 10
98.180750723
 20
-98.955123928
 10
105.3911590993
 20
-96.4934400267
 10
112.4166755704
 20
-93.8596088629
 10
119.2449749931
 20
-91.0582510713
 10
125.86407821
 20
-88.0942811854
 10
132.2623730647
 20
-84.9728990156
 10
138.4286347741
 20
-81.6995805269
 10
144.3520456197
 20
-78.2800682321
 10
150.0222139261
 20
-74.7203611178
 10
155.4291922914
 20
-71.0267041198
 10
160.5634950382
 20
-67.2055771677
 10
165.4161148549
 20
-63.2636838165
 10
169.9785385974
 20
-59.2079394867
 10
174.242762224
 20
-55.045459332
 10
178.2013048377
 20
-50.7835457569
 10
181.8472218094
 20
-46.4296756061
 10
185.174116962
 20
-41.9914870472
 10
188.1761537908
 20
-37.4767661712
 10
190.8480657033
 20
-32.8934333326
 10
193.1851652578
 20
-28.2495292545
 10
195.1833523878
 20
-23.5532009228
 10
196.8391215938
 20
-18.8126872931
 10
198.1495680943
 20
-14.0363048372
 10
198.4439098338
 20
-12.7414363089
  0
LWPOLYLINE
  5
AC
330
23
100
AcDbEntity
  8
0
  6
Continuous
 62
     8
370
    25
100
AcDbPolyline
 90
       51
 70
   128
 43
0.0
 10
137.8617458984
 20
176.7830496428
 10
131.8865094356
 20
180.0890610732
 10
125.6736045685
 20
183.2456956911
 10
119.2342273717
 20
186.2472650276
 10
112.579982038
 20
189.0883600518
 10
105.7228599673
 20
191.7638609185
 10
98.675218157
 20
194.2689461944
 10
91.4497569341
 20
196.5991015463
 10
84.0594970681
 20
198.750127877
 10
76.5177563067
 20
200.7181488914
 10
68.8381253766
 20
202.4996180828
 10
61.0344434918
 20
204.0913251233
 10
53.1207734144
 20
205.4904016491
 10
45.1113761128
 20
206.6943264299
 10
37.0206850624
 20
207.7009299118
 10
28.8632802353
 20
208.5083981272
 10
20.6538618263
 20
209.1152759639
 10
12.4072237622
 20
209.520469787
 10
4.1382270424
 20
209.7232494099
 10
-4.1382270424
 20
209.7232494099
 10
-12.4072237622
 20
209.520469787
 10
-20.6538618263
 20
209.1152759639
 10
-28.8632802353
 20
208.5083981272
 10
-37.0206850624
 20
207.7009299118
 10
-45.1113761128
 20
206.6943264299
 10
-53.1207734144
 20
205.4904016491
 10
-61.0344434918
 20
204.0913251233
 10
-68.8381253766
 20
202.4996180828
 10
-76.5177563067
 20
200.7181488914
 10
-84.0594970681
 20
198.750127877
 10
-91.4497569341
 20
196.5991015463
 10
-98.675218157
 20
194.2689461944
 10
-105.7228599673
 20
191.7638609185
 10
-112.579982038
 20
189.0883600518
 10
-119.2342273717
 20
186.2472650276
 10
-125.6736045685
 20
183.2456956911
 10
-131.8865094356
 20
180.0890610732
 10
-137.8617458984
 20
176.7830496428
 10
-143.5885461769
 20
173.3336190561
 10
-149.05659019
 20
169.7469854199
 10
-154.2560241527
 20
166.0296120907
 10
-159.1774783336
 20
162.1881980264
 10
-163.8120839397
 20
158.2296657147
 10
-168.1514890983
 20
154.1611486984
 10
-172.1878739081
 20
149.9899787203
 10
-175.9139645309
 20
145.7236725105
 10
-179.3230462994
 20
141.3699182413
 10
-182.4089758179
 20
136.936561672
 10
-185.1661920329
 20
132.4315920108
 10
-187.5897262543
 20
127.8631275176
 10
-189.4905916908
 20
123.6835157626
  0
LWPOLYLINE
  5
AD
330
23
100
AcDbEntity
  8
0
  6
Continuous
 62
     8
370
    25
100
AcDbPolyline
 90
       15
 70
   128
 43
0.0
 10
190.9791012248
 20
119.8420352912
 10
189.6752111097
 20
123.2394008742
 10
187.5897262543
 20
127.8631275176
 10
185.1661920329
 20
132.4315920108
 10
182.4089758179
 20
136.936561672
 10
179.3230462994
 20
141.3699182413
 10
175.9139645309
 20
145.7236725105
 10
172.1878739081
 20
149.9899787203
 10
168.1514890983
 20
154.1611486984
 10
163.8120839397
 20
158.2296657147
 10
159.1774783336
 20
162.1881980264
 10
154.2560241527
 20
166.0296120907
 10
149.05659019
 20
169.7469854199
 10
143.5885461769
 20
173.3336190561
 10
137.8617458984
 20
176.7830496428
  0
LWPOLYLINE
  5
AE
330
23
100
AcDbEntity
  8
0
  6
Continuous
 62
     8
370
    25
100
AcDbPolyline
 90
       63
 70
   128
 43
0.0
 10
-186.0977005125
 20
63.6753303714
 10
-184.6486644843
 20
66.7097343239
 10
-182.1841073175
 20
71.2361986819
 10
-179.3867607881
 20
75.6977347637
 10
-176.2617347116
 20
80.0861928367
 10
-172.8147374642
 20
84.3935566574
 10
-169.0520655558
 20
88.6119581144
 10
-164.980592128
 20
92.7336916008
 10
-160.6077543996
 20
96.7512280894
 10
-155.9415400808
 20
100.6572288864
 10
-150.9904727828
 20
104.4445590361
 10
-145.7635964479
 20
108.1063003545
 10
-140.2704588288
 20
111.6357640664
 10
-134.5210940489
 20
115.0265030232
 10
-128.5260042723
 20
118.2723234802
 10
-122.2961405209
 20
121.3672964103
 10
-115.8428826697
 20
124.3057683343
 10
-109.17801866
 20
127.0823716477
 10
-102.3137229667
 20
129.6920344262
 10
-95.2625343597
 20
132.1299896895
 10
-88.0373329996
 20
134.3917841098
 10
-80.65131691
 20
136.4732861459
 10
-73.1179778692
 20
138.3706935906
 10
-65.4510767653
 20
140.0805405158
 10
-57.6646184593
 20
141.5997036036
 10
-49.7728262036
 20
142.9254078519
 10
-41.79011566
 20
144.0552316428
 10
-33.7310685678
 20
144.9871111666
 10
-25.6104061077
 20
145.7193441913
 10
-17.4429620109
 20
146.2505931725
 10
-9.243655463
 20
146.5798876961
 10
-1.0274638516
 20
146.7066262513
 10
7.1906045922
 20
146.6305773291
 10
15.395538209
 20
146.3518798456
 10
23.5723493326
 20
145.8710428877
 10
31.7061016667
 20
145.1889447834
 10
39.7819375693
 20
144.3068314978
 10
47.7851051924
 20
143.2263143563
 10
55.7009854283
 20
141.949367102
 10
63.5151186145
 20
140.4783222899
 10
71.213230946
 20
138.8158670264
 10
78.7812605492
 20
136.9650380607
 10
86.205383168
 20
134.9292162374
 10
93.4720374163
 20
132.7121203214
 10
100.5679495498
 20
130.3178002046
 10
107.4801577132
 20
127.7506295081
 10
114.1960356164
 20
125.0152975932
 10
120.7033155993
 20
122.1168009955
 10
126.9901110401
 20
119.0604342977
 10
133.0449380688
 20
115.8517804584
 10
138.8567365436
 20
112.4967006138
 10
144.4148902547
 20
109.0013233714
 10
149.7092463163
 20
105.372033615
 10
154.7301337127
 20
101.6154608417
 10
159.4683809638
 20
97.7384670524
 10
163.9153328783
 20
93.7481342163
 10
168.0628663641
 20
89.6517513356
 10
171.9034052662
 20
85.45680113
 10
175.429934206
 20
81.1709463692
 10
178.636011396
 20
76.8020158746
 10
181.5157804067
 20
72.3579902193
 10
184.0639808642
 20
67.8469871503
 10
186.0624384424
 20
63.753363662
  0
LWPOLYLINE
  5
AF
330
23
100
AcDbEntity
  8
0
  6
Continuous
 62
     8
370
    25
100
AcDbPolyline
 90
       63
 70
   128
 43
0.0
 10
178.4866967874
 20
51.9583897508
 10
178.2171871151
 20
52.6140520432
 10
176.1612869153
 20
57.1091934707
 10
173.7653480798
 20
61.5478651984
 10
171.0339954147
 20
65.9214993966
 10
167.9725011648
 20
70.2216537757
 10
164.5867748368
 20
74.440027882
 10
160.8833517927
 20
78.5684791195
 10
156.8693806345
 20
82.5990384675
 10
152.5526094053
 20
86.5239258632
 10
147.9413706341
 20
90.3355652188
 10
143.0445652511
 20
94.0265990459
 10
137.8716454071
 20
97.589902657
 10
132.4325962276
 20
101.0185979183
 10
126.7379165398
 20
104.3060665263
 10
120.7985986061
 20
107.445962783
 10
114.6261069066
 20
110.4322258446
 10
108.2323560095
 20
113.2590914207
 10
101.6296875725
 20
115.9211029008
 10
94.8308465206
 20
118.4131218872
 10
87.8489564445
 20
120.7303381136
 10
80.6974942689
 20
122.8682787296
 10
73.3902642379
 20
124.8228169352
 10
65.9413712697
 20
126.5901799463
 10
58.3651937301
 20
128.1669562773
 10
50.676355678
 20
129.5501023259
 10
42.8896986378
 20
130.7369482485
 10
35.0202529505
 20
131.7252031135
 10
27.0832087616
 20
132.5129593233
 10
19.0938866999
 20
133.0986962966
 10
11.0677083045
 20
133.4812834038
 10
3.020166257
 20
133.6599821488
 10
-5.0332055231
 20
133.6344475951
 10
-13.0768618637
 20
133.4047290311
 10
-21.0952763458
 20
132.9712698754
 10
-29.0729712743
 20
132.3349068208
 10
-36.9945475533
 20
131.496868219
 10
-44.8447144115
 20
130.4587717097
 10
-52.6083189168
 20
129.2226210982
 10
-60.2703752254
 20
127.7908024876
 10
-67.8160935093
 20
126.1660796726
 10
-75.2309085039
 20
124.3515888049
 10
-82.500507623
 20
122.3508323396
 10
-89.6108585865
 20
120.1676722746
 10
-96.5482365056
 20
117.8063226956
 10
-103.2992503762
 20
115.271341642
 10
-109.8508689269
 20
112.5676223086
 10
-116.1904457728
 20
109.7003836006
 10
-122.3057438266
 20
106.6751600592
 10
-128.1849589192
 20
103.4977911792
 10
-133.8167425851
 20
100.1744101366
 10
-139.1902239681
 20
96.71143195
 10
-144.2950308047
 20
93.1155410982
 10
-149.1213094455
 20
89.3936786172
 10
-153.6597438756
 20
85.5530287019
 10
-157.9015736964
 20
81.6010048391
 10
-161.8386110363
 20
77.5452354971
 10
-165.4632563549
 20
73.3935494009
 10
-168.7685131125
 20
69.1539604206
 10
-171.748001275
 20
64.8346521027
 10
-174.3959696294
 20
60.4439618731
 10
-176.7073068851
 20
55.9903649442
 10
-178.4782864255
 20
51.9791349855
  0
LWPOLYLINE
  5
B0
330
23
100
AcDbEntity
  8
0
  6
Continuous
 62
     8
370
    25
100
AcDbPolyline
 90
       35
 70
   128
 43
0.0
 10
39.9998444007
 20
16.8414090666
 10
39.8654100803
 20
18.6696842033
 10
39.3832297467
 20
20.8164152961
 10
38.554948174
 20
22.9276478703
 10
37.3878443305
 20
24.9848283381
 10
35.8921747667
 20
26.9698781235
 10
34.0810834804
 20
28.8653525376
 10
31.9704864072
 20
30.6545940832
 10
29.5789315498
 20
32.3218788412
 10
26.9274359784
 20
33.8525546532
 10
24.0393011315
 20
35.2331698851
 10
20.9399080418
 20
36.4515916407
 10
17.6564942874
 20
37.4971123857
 10
14.2179146263
 20
38.3605440462
 10
10.6543874202
 20
39.0342987538
 10
6.9972290744
 20
39.5124555278
 10
3.2785788279
 20
39.7908123094
 10
-0.4688836872
 20
39.8669228892
 10
-4.2122256357
 20
39.7401184045
 10
-7.9185503937
 20
39.4115132179
 10
-11.5552866462
 20
38.8839951234
 10
-15.0904746242
 20
38.1621999691
 10
-18.4930469686
 20
37.2524709167
 10
-21.7331017513
 20
36.1628026979
 10
-24.7821652543
 20
34.9027713562
 10
-27.613442198
 20
33.4834500922
 10
-30.2020512188
 20
31.9173119523
 10
-32.5252435276
 20
30.2181202148
 10
-34.5626028267
 20
28.4008074378
 10
-36.2962247295
 20
26.4813442312
 10
-37.7108741043
 20
24.4765989068
 10
-38.7941189615
 20
22.4041892386
 10
-39.5364397063
 20
20.2823276372
 10
-39.9313127975
 20
18.1296610987
 10
-39.999814708
 20
16.8472863401
  0
LWPOLYLINE
  5
B1
330
23
100
AcDbEntity
  8
0
  6
Continuous
 62
     8
370
    25
100
AcDbPolyline
 90
        8
 70
   128
 43
0.0
 10
28.2842712475
 20
23.6770295434
 10
30.8085709411
 20
22.0762898718
 10
33.0621238056
 20
20.3461250812
 10
35.0251255372
 20
18.5017399219
 10
36.6803252063
 20
16.5593429171
 10
38.0131768586
 20
14.5360039214
 10
39.0119673458
 20
12.4495041107
 10
39.029702795
 20
12.4040851811
  0
LWPOLYLINE
  5
B2
330
23
100
AcDbEntity
  8
0
  6
Continuous
 62
     8
370
    25
100
AcDbPolyline
 90
       24
 70
   128
 43
0.0
 10
-39.0591023585
 20
12.3278365427
 10
-38.2945864389
 20
14.0195922975
 10
-37.044265084
 20
16.0604128771
 10
-35.4683973957
 20
18.024676081
 10
-33.5808321557
 20
19.8951198935
 10
-31.3981573553
 20
21.6553067872
 10
-28.9395544191
 20
23.2897681763
 10
-26.2266296381
 20
24.7841403554
 10
-23.2832242928
 20
26.125290728
 10
-20.1352051353
 20
27.3014332165
 10
-16.8102370711
 20
28.3022318384
 10
-13.337540039
 20
29.1188915394
 10
-9.7476322256
 20
29.7442354846
 10
-6.0720618696
 20
30.172768129
 10
-2.3431300156
 20
30.4007235124
 10
1.4063933492
 20
30.4260983546
 10
5.1435572788
 20
30.2486696605
 10
8.835519442
 20
29.86999668
 10
12.4498347426
 20
29.2934072048
 10
15.9547404479
 20
28.5239683239
 10
19.3194353205
 20
27.5684418939
 10
22.5143503008
 20
26.4352251154
 10
25.5114083611
 20
25.1342767382
 10
28.2842712475
 20
23.6770295434
  0
LWPOLYLINE
  5
B3
330
23
100
AcDbEntity
  8
0
  6
Continuous
 62
     8
370
    25
100
AcDbPolyline
 90
       24
 70
   128
 43
0.0
 10
26.8700576851
 20
21.2275398078
 10
24.1512838183
 20
22.6522254842
 10
21.2070159216
 20
23.9187801855
 10
18.0647438313
 20
25.0153784316
 10
14.753806095
 20
25.9317815802
 10
11.3051160465
 20
26.6594334221
 10
7.7508731754
 20
27.1915400679
 10
4.1242624899
 20
27.5231333814
 10
0.4591446767
 20
27.6511173651
 10
-3.2102600467
 20
27.574297067
 10
-6.8496914369
 20
27.2933897376
 10
-10.4251691038
 20
26.811018133
 10
-13.9033097756
 20
26.1316860267
 10
-17.2516389901
 20
25.2617361597
 10
-20.4388942996
 20
24.2092910194
 10
-23.4353171599
 20
22.9841770027
 10
-26.2129307782
 20
21.5978326689
 10
-28.7458013245
 20
20.0632019415
 10
-31.010280069
 20
18.3946132543
 10
-32.9852241838
 20
16.6076457702
 10
-34.6521941477
 20
14.7189839231
 10
-35.9956259114
 20
12.7462616398
 10
-37.0029762145
 20
10.7078976967
 10
-37.4417731176
 20
9.462094983
  0
LWPOLYLINE
  5
B4
330
23
100
AcDbEntity
  8
0
  6
Continuous
 62
     8
370
    25
100
AcDbPolyline
 90
        8
 70
   128
 43
0.0
 10
37.4440917866
 20
9.4543639423
 10
37.201128545
 20
10.1902695253
 10
36.2793929273
 20
12.2420902605
 10
35.0189263929
 20
14.2329766484
 10
33.431497578
 20
16.144340319
 10
31.5319278779
 20
17.9583353848
 10
29.337953063
 20
19.6580250626
 10
26.8700576851
 20
21.2275398078
  0
LWPOLYLINE
  5
B5
330
23
100
AcDbEntity
  8
0
  6
Continuous
 62
     8
370
    25
100
AcDbPolyline
 90
       12
 70
   128
 43
0.0
 10
17.3241161391
 20
15.716785053
 10
19.2859952749
 20
14.4383792442
 10
20.9666411714
 20
13.0327783797
 10
22.3415462268
 20
11.5204792852
 10
23.3906612295
 20
9.923534687
 10
24.0986877202
 20
8.2652316333
 10
24.4553010785
 20
6.5697519168
 10
24.4553010785
 20
4.8618194496
 10
24.0986877202
 20
3.1663397331
 10
23.3906612295
 20
1.5080366794
 10
22.3415462268
 20
-0.0889079188
 10
21.7942110372
 20
-0.7452571083
  0
LWPOLYLINE
  5
B6
330
23
100
AcDbEntity
  8
0
  6
Continuous
 62
     8
370
    25
100
AcDbPolyline
 90
       25
 70
   128
 43
0.0
 10
-21.7580137374
 20
-0.7857872851
 10
-22.3415462268
 20
-0.0889079188
 10
-23.3906612295
 20
1.5080366794
 10
-24.0986877202
 20
3.1663397331
 10
-24.4553010785
 20
4.8618194496
 10
-24.4553010785
 20
6.5697519168
 10
-24.0986877202
 20
8.2652316333
 10
-23.3906612295
 20
9.923534687
 10
-22.3415462268
 20
11.5204792852
 10
-20.9666411714
 20
13.0327783797
 10
-19.2859952749
 20
14.4383792442
 10
-17.3241161391
 20
15.716785053
 10
-15.1096123794
 20
16.8493537708
 10
-12.6747764474
 20
17.8195699951
 10
-10.0551137336
 20
18.6132857889
 10
-7.2888248195
 20
19.2189269885
 10
-4.4162484264
 20
19.6276619815
 10
-1.4792731868
 20
19.8335304912
 10
1.4792731868
 20
19.8335304912
 10
4.4162484264
 20
19.6276619815
 10
7.2888248195
 20
19.2189269885
 10
10.0551137336
 20
18.6132857889
 10
12.6747764474
 20
17.8195699951
 10
15.1096123794
 20
16.8493537708
 10
17.3241161391
 20
15.716785053
  0
LWPOLYLINE
  5
B7
330
23
100
AcDbEntity
  8
0
  6
Continuous
 62
     8
370
    25
100
AcDbPolyline
 90
       20
 70
   128
 43
0.0
 10
15.9099025767
 20
13.2672953174
 10
13.7904087072
 20
14.3460065934
 10
11.4534318544
 20
15.2628594574
 10
8.9358275393
 20
16.0033945921
 10
6.2772998859
 20
16.555933316
 10
3.5197754634
 20
16.9117617633
 10
0.7067420793
 20
17.065268307
 10
-2.1174370497
 20
17.0140320571
 10
-4.9082229314
 20
16.7588610399
 10
-7.6216032055
 20
16.3037794547
 10
-10.2147862441
 20
15.65596421
 10
-12.6468760017
 20
14.8256317392
 10
-14.8795169698
 20
13.8258768814
 10
-16.8774990667
 20
12.6724663679
 10
-18.6093129212
 20
11.3835901715
 10
-20.0476467942
 20
9.9795746398
 10
-21.1698173015
 20
8.4825619364
 10
-21.9581271436
 20
6.9161608459
 10
-22.4001442036
 20
5.3050744493
 10
-22.5
 20
4.0827040594
  0
LWPOLYLINE
  5
B8
330
23
100
AcDbEntity
  8
0
  6
Continuous
 62
     8
370
    25
100
AcDbPolyline
 90
        8
 70
   128
 43
0.0
 10
22.4999938765
 20
4.0922869723
 10
22.4888976082
 20
4.4906975774
 10
22.2229876634
 20
6.1146271838
 10
21.6066079277
 20
7.7065121486
 10
20.6494790779
 20
9.2412474952
 10
19.3666956076
 20
10.6946295302
 10
17.7784877785
 20
12.0437375507
 10
15.9099025767
 20
13.2672953174
  0
LWPOLYLINE
  5
BA
330
23
100
AcDbEntity
  8
0
  6
Continuous
 62
     8
370
    25
100
AcDbPolyline
 90
       20
 70
   128
 43
0.0
 10
-22.4095807108
 20
2.7963833106
 10
-22.4001442036
 20
2.8554520137
 10
-21.9581271436
 20
4.4665384103
 10
-21.1698173015
 20
6.0329395007
 10
-20.0476467942
 20
7.5299522041
 10
-18.6093129212
 20
8.9339677358
 10
-16.8774990667
 20
10.2228439322
 10
-14.8795169698
 20
11.3762544457
 10
-12.6468760017
 20
12.3760093035
 10
-10.2147862441
 20
13.2063417743
 10
-7.6216032055
 20
13.854157019
 10
-4.9082229314
 20
14.3092386042
 10
-2.1174370497
 20
14.5644096214
 10
0.7067420793
 20
14.6156458714
 10
3.5197754634
 20
14.4621393277
 10
6.2772998859
 20
14.1063108803
 10
8.9358275393
 20
13.5537721564
 10
11.4534318544
 20
12.8132370217
 10
13.7904087072
 20
11.8963841577
 10
15.9099025767
 20
10.8176728818
  0
LINE
  5
BB
330
23
100
AcDbEntity
  8
0
  6
Continuous
 62
     7
370
    25
100
AcDbLine
 10
200.0
 20
1.6330816238
 30
0.0
 11
200.0
 21
97.1683566144
 31
0.0
  0
LINE
  5
BC
330
23
100
AcDbEntity
  8
0
  6
Continuous
 62
     7
370
    25
100
AcDbLine
 10
-200.0
 20
97.1683566144
 30
0.0
 11
-200.0
 21
1.6330816238
 31
0.0
  0
LINE
  5
BD
330
23
100
AcDbEntity
  8
0
  6
Continuous
 62
     7
370
    25
100
AcDbLine
 10
-22.5
 20
4.0827040594
 30
0.0
 11
-22.495223783
 21
3.8150846885
 31
0.0
  0
ARC
  5
BE
330
23
100
AcDbEntity
  8
0
  6
Continuous
 62
     7
370
    25
100
AcDbCircle
 10
-130.5820951703
 20
97.1519398995
 30
0.0
 40
69.37042846740968
100
AcDbArc
 50
154.950093118
 51
206.0957675044
  0
ARC
  5
BF
330
23
100
AcDbEntity
  8
0
  6
Continuous
 62
     7
370
    25
100
AcDbCircle
 10
130.3602455444
 20
97.1669818947
 30
0.0
 40
69.5760184419671
100
AcDbArc
 50
333.9972348402
 51
25.9119532779
  0
ARC
  5
C0
330
23
100
AcDbEntity
  8
0
  6
Continuous
 62
     7
370
    25
100
AcDbCircle
 10
-132.3582597296
 20
1.6861273425
 30
0.0
 40
67.64176107000968
100
AcDbArc
 50
180.044932244
 51
191.8439803224
  0
ARC
  5
C1
330
23
100
AcDbEntity
  8
0
  6
Continuous
 62
     7
370
    25
100
AcDbCircle
 10
132.4821316034
 20
1.6706341772
 30
0.0
 40
67.51787883972496
100
AcDbArc
 50
347.6750624912
 51
359.9681328417
  0
ARC
  5
C2
330
23
100
AcDbEntity
  8
0
  6
Continuous
 62
     7
370
    25
100
AcDbCircle
 10
-127.1240759195
 20
97.1435835436
 30
0.0
 40
67.77868611620086
100
AcDbArc
 50
156.9479295371
 51
207.203083286
  0
ARC
  5
C3
330
23
100
AcDbEntity
  8
0
  6
Continuous
 62
     7
370
    25
100
AcDbCircle
 10
127.718349525
 20
97.1249847229
 30
0.0
 40
67.21597348953861
100
AcDbArc
 50
334.0305449833
 51
19.7533052656
  0
ARC
  5
C4
330
23
100
AcDbEntity
  8
0
  6
Continuous
 62
     8
370
    25
100
AcDbCircle
 10
10.8254805904
 20
0.0648877429
 30
0.0
 40
11.89427320932039
100
AcDbArc
 50
12.8124478132
 51
64.6930156515
  0
VIEWPORT
  5
C7
330
23
100
AcDbEntity
  8
0
100
AcDbViewport
 10
0.0
 20
0.0
 30
0.0
 40
205.6
 41
156.0
 68
     1
 69
     1
 12
0.0
 22
0.0
 13
0.0
 23
0.0
 14
10.0
 24
10.0
 15
10.0
 25
10.0
 16
0.0
 26
0.0
 36
1.0
 17
0.0
 27
0.0
 37
0.0
 42
50.0
 43
0.0
 44
0.0
 45
408.0
 50
0.0
 51
0.0
 72
   100
 90
   557152
  1

281
     0
 71
     1
 74
     0
110
0.0
120
0.0
130
0.0
111
1.0
121
0.0
131
0.0
112
0.0
122
1.0
132
0.0
 79
     0
146
0.0
  0
ENDBLK
  5
25
330
23
100
AcDbEntity
  8
0
100
AcDbBlockEnd
  0
ENDSEC
  0
SECTION
  2
ENTITIES
  0
CIRCLE
  5
73
330
1F
100
AcDbEntity
  8
0
  6
Continuous
 62
     7
370
    25
100
AcDbCircle
 10
0.0
 20
0.0
 30
0.0
 40
195.9653285258807
  0
CIRCLE
  5
74
330
1F
100
AcDbEntity
  8
0
  6
Continuous
 62
     7
370
    25
100
AcDbCircle
 10
0.0
 20
0.0
 30
0.0
 40
194.9659507819645
  0
CIRCLE
  5
75
330
1F
100
AcDbEntity
  8
0
  6
Continuous
 62
     7
370
    25
100
AcDbCircle
 10
0.0
 20
0.0
 30
0.0
 40
198.9999999999997
  0
CIRCLE
  5
76
330
1F
100
AcDbEntity
  8
0
  6
Continuous
 62
     7
370
    25
100
AcDbCircle
 10
0.0
 20
0.0
 30
0.0
 40
200.0000000000002
  0
CIRCLE
  5
77
330
1F
100
AcDbEntity
  8
0
  6
Continuous
 62
     7
370
    25
100
AcDbCircle
 10
0.0
 20
0.0
 30
0.0
 40
192.3074331097288
  0
CIRCLE
  5
78
330
1F
100
AcDbEntity
  8
0
  6
Continuous
 62
     7
370
    25
100
AcDbCircle
 10
0.0
 20
0.0
 30
0.0
 40
183.3054610000797
  0
CIRCLE
  5
79
330
1F
100
AcDbEntity
  8
0
  6
Continuous
 62
     7
370
    25
100
AcDbCircle
 10
0.0
 20
0.0
 30
0.0
 40
44.87858838765381
  0
CIRCLE
  5
7A
330
1F
100
AcDbEntity
  8
0
  6
Continuous
 62
     7
370
    25
100
AcDbCircle
 10
0.0
 20
0.0
 30
0.0
 40
39.99999999999999
  0
CIRCLE
  5
7B
330
1F
100
AcDbEntity
  8
0
  6
Continuous
 62
     7
370
    25
100
AcDbCircle
 10
0.0
 20
0.0
 30
0.0
 40
37.99999999999999
  0
CIRCLE
  5
7C
330
1F
100
AcDbEntity
  8
0
  6
Continuous
 62
     7
370
    25
100
AcDbCircle
 10
0.0
 20
0.0
 30
0.0
 40
24.5
  0
CIRCLE
  5
7D
330
1F
100
AcDbEntity
  8
0
  6
Continuous
 62
     7
370
    25
100
AcDbCircle
 10
0.0
 20
0.0
 30
0.0
 40
22.5
  0
LINE
  5
8A
330
1B
100
AcDbEntity
 67
     1
  8
0
  6
Continuous
 62
     7
370
    25
100
AcDbLine
 10
200.0
 20
2.0
 30
0.0
 11
200.0
 21
119.0
 31
0.0
  0
LINE
  5
8B
330
1B
100
AcDbEntity
 67
     1
  8
0
  6
Continuous
 62
     7
370
    25
100
AcDbLine
 10
-200.0
 20
119.0
 30
0.0
 11
-200.0
 21
2.0
 31
0.0
  0
LINE
  5
8C
330
1B
100
AcDbEntity
 67
     1
  8
0
  6
Continuous
 62
     7
370
    25
100
AcDbLine
 10
198.0
 20
0.0
 30
0.0
 11
-198.0
 21
0.0
 31
0.0
  0
LINE
  5
8D
330
1B
100
AcDbEntity
 67
     1
  8
0
  6
Continuous
 62
     7
370
    25
100
AcDbLine
 10
-199.0
 20
120.0
 30
0.0
 11
199.0
 21
120.0
 31
0.0
  0
LINE
  5
8E
330
1B
100
AcDbEntity
 67
     1
  8
0
  6
Continuous
 62
     8
370
    25
100
AcDbLine
 10
-200.0
 20
2.0
 30
0.0
 11
200.0
 21
2.0
 31
0.0
  0
LINE
  5
8F
330
1B
100
AcDbEntity
 67
     1
  8
0
  6
Continuous
 62
     8
370
    25
100
AcDbLine
 10
200.0
 20
119.0
 30
0.0
 11
-200.0
 21
119.0
 31
0.0
  0
ARC
  5
90
330
1B
100
AcDbEntity
 67
     1
  8
0
  6
Continuous
 62
     7
370
    25
100
AcDbCircle
 10
198.0
 20
2.0
 30
0.0
 40
2.0
100
AcDbArc
 50
270.0
 51
0.0
  0
ARC
  5
91
330
1B
100
AcDbEntity
 67
     1
  8
0
  6
Continuous
 62
     7
370
    25
100
AcDbCircle
 10
-198.0
 20
2.0
 30
0.0
 40
1.999999999999974
100
AcDbArc
 50
180.0
 51
270.0
  0
ARC
  5
92
330
1B
100
AcDbEntity
 67
     1
  8
0
  6
Continuous
 62
     7
370
    25
100
AcDbCircle
 10
-199.0
 20
119.0
 30
0.0
 40
1.0
100
AcDbArc
 50
90.0
 51
180.0
  0
ARC
  5
93
330
1B
100
AcDbEntity
 67
     1
  8
0
  6
Continuous
 62
     7
370
    25
100
AcDbCircle
 10
199.0
 20
119.0
 30
0.0
 40
1.0
100
AcDbArc
 50
0.0
 51
90.0
  0
VIEWPORT
  5
C5
330
1B
100
AcDbEntity
 67
     1
  8
0
100
AcDbViewport
 10
0.0
 20
0.0
 30
0.0
 40
205.6
 41
156.0
 68
     1
 69
     1
 12
0.0
 22
0.0
 13
0.0
 23
0.0
 14
10.0
 24
10.0
 15
10.0
 25
10.0
 16
0.0
 26
0.0
 36
1.0
 17
0.0
 27
0.0
 37
0.0
 42
50.0
 43
0.0
 44
0.0
 45
408.0
 50
0.0
 51
0.0
 72
   100
 90
   557152
  1

281
     0
 71
     1
 74
     0
110
0.0
120
0.0
130
0.0
111
1.0
121
0.0
131
0.0
112
0.0
122
1.0
132
0.0
 79
     0
146
0.0
  0
ENDSEC
  0
SECTION
  2
OBJECTS
  0
DICTIONARY
  5
C
330
0
100
AcDbDictionary
281
     1
  3
ACAD_GROUP
350
D
  3
ACAD_LAYOUT
350
1A
  3
ACAD_MLINESTYLE
350
17
  3
ACAD_PLOTSETTINGS
350
19
  3
ACAD_PLOTSTYLENAME
350
E
  3
ACAD_SCALELIST
350
47
  0
DICTIONARY
  5
D
102
{ACAD_REACTORS
330
C
102
}
330
C
100
AcDbDictionary
281
     1
  0
DICTIONARY
  5
1A
102
{ACAD_REACTORS
330
C
102
}
330
C
100
AcDbDictionary
281
     1
  3
_Front
350
1E
  3
_Isometric
350
26
  3
Model
350
22
  0
DICTIONARY
  5
17
102
{ACAD_REACTORS
330
C
102
}
330
C
100
AcDbDictionary
281
     1
  3
Standard
350
18
  0
DICTIONARY
  5
19
102
{ACAD_REACTORS
330
C
102
}
330
C
100
AcDbDictionary
281
     1
  0
ACDBDICTIONARYWDFLT
  5
E
102
{ACAD_REACTORS
330
C
102
}
330
C
100
AcDbDictionary
281
     1
  3
Normal
350
F
100
AcDbDictionaryWithDefault
340
F
  0
DICTIONARY
  5
47
102
{ACAD_REACTORS
330
C
102
}
330
C
100
AcDbDictionary
281
     1
  3
A0
350
48
  3
A1
350
49
  3
A2
350
4A
  3
A3
350
4B
  3
A4
350
4C
  3
A5
350
4D
  3
A6
350
4E
  3
A7
350
4F
  3
A8
350
50
  3
A9
350
51
  3
B0
350
52
  3
B1
350
53
  3
B2
350
54
  3
B3
350
55
  3
B4
350
56
  3
B5
350
57
  3
B6
350
58
  3
B7
350
59
  3
B8
350
5A
  3
B9
350
5B
  3
C0
350
5C
  3
C1
350
5D
  3
C2
350
5E
  3
C3
350
5F
  3
C4
350
60
  3
C5
350
61
  3
C6
350
62
  3
C7
350
63
  3
C8
350
64
  3
C9
350
65
  3
D0
350
66
  3
D1
350
67
  3
D2
350
68
  0
LAYOUT
  5
1E
102
{ACAD_REACTORS
330
1A
102
}
330
1A
100
AcDbPlotSettings
  1

  2
none_device
  4
ISO_A4_(210.00_x_297.00_MM)
  6

 40
7.5
 41
20.0
 42
7.5
 43
20.0
 44
210.0
 45
297.0
 46
0.0
 47
0.0
 48
0.0
 49
0.0
140
0.0
141
0.0
142
1.0
143
1.5564202335
 70
   688
 72
     1
 73
     1
 74
     1
  7

 75
     0
147
0.6425
148
200.0
149
0.0
100
AcDbLayout
  1
_Front
 70
     1
 71
     1
 10
-231.1284046693
 20
-11.673151751
 11
231.1284046692
 21
315.1750972763
 12
0.0
 22
0.0
 32
0.0
 14
-200.0
 24
0.0
 34
0.0
 15
200.0
 25
120.0
 35
0.0
146
0.0
 13
0.0
 23
0.0
 33
0.0
 16
1.0
 26
0.0
 36
0.0
 17
0.0
 27
1.0
 37
0.0
 76
     0
330
1B
331
C5
  0
LAYOUT
  5
26
102
{ACAD_REACTORS
330
1A
102
}
330
1A
100
AcDbPlotSettings
  1

  2
none_device
  4
ISO_A4_(210.00_x_297.00_MM)
  6

 40
7.5
 41
20.0
 42
7.5
 43
20.0
 44
210.0
 45
297.0
 46
0.0
 47
0.0
 48
0.0
 49
0.0
140
0.0
141
0.0
142
1.0
143
1.5564202335
 70
   688
 72
     1
 73
     1
 74
     1
  7

 75
     0
147
0.6425
148
200.0
149
0.0
100
AcDbLayout
  1
_Isometric
 70
     1
 71
     2
 10
0.0
 20
0.0
 11
0.0
 21
0.0
 12
0.0
 22
0.0
 32
0.0
 14
0.0
 24
0.0
 34
0.0
 15
0.0
 25
0.0
 35
0.0
146
0.0
 13
0.0
 23
0.0
 33
0.0
 16
1.0
 26
0.0
 36
0.0
 17
0.0
 27
1.0
 37
0.0
 76
     0
330
23
331
C7
  0
LAYOUT
  5
22
102
{ACAD_REACTORS
330
1A
102
}
330
1A
100
AcDbPlotSettings
  1

  2
none_device
  4
ANSI_A_(11.00_x_8.50_Inches)
  6

 40
6.35
 41
19.05
 42
6.35000508
 43
19.05000254
 44
279.4
 45
215.9
 46
133.34999746
 47
88.89999873
 48
0.0
 49
0.0
140
0.0
141
0.0
142
0.0210375
143
1.0
 70
  1696
 72
     0
 73
     0
 74
     0
  7

 75
     0
147
0.0179189148
148
-1300.4909072572
149
0.0
100
AcDbLayout
  1
Model
 70
     1
 71
     0
 10
0.0
 20
0.0
 11
420.0
 21
297.0
 12
0.0
 22
0.0
 32
0.0
 14
-200.0
 24
-200.0
 34
0.0
 15
200.0
 25
200.0
 35
0.0
146
0.0
 13
0.0
 23
0.0
 33
0.0
 16
1.0
 26
0.0
 36
0.0
 17
0.0
 27
1.0
 37
0.0
 76
     0
330
1F
331
29
  0
MLINESTYLE
  5
18
102
{ACAD_REACTORS
330
17
102
}
330
17
100
AcDbMlineStyle
  2
Standard
 70
     0
  3

 62
   256
 51
90.0
 52
90.0
 71
     2
 49
0.5
 62
   256
  6
BYLAYER
 49
-0.5
 62
   256
  6
BYLAYER
  0
ACDBPLACEHOLDER
  5
F
102
{ACAD_REACTORS
330
E
102
}
330
E
  0
SCALE
  5
48
102
{ACAD_REACTORS
330
47
102
}
330
47
100
AcDbScale
 70
     0
300
1:1
140
1.0
141
1.0
290
     1
  0
SCALE
  5
49
102
{ACAD_REACTORS
330
47
102
}
330
47
100
AcDbScale
 70
     0
300
1:2
140
1.0
141
2.0
290
     0
  0
SCALE
  5
4A
102
{ACAD_REACTORS
330
47
102
}
330
47
100
AcDbScale
 70
     0
300
1:4
140
1.0
141
4.0
290
     0
  0
SCALE
  5
4B
102
{ACAD_REACTORS
330
47
102
}
330
47
100
AcDbScale
 70
     0
300
1:5
140
1.0
141
5.0
290
     0
  0
SCALE
  5
4C
102
{ACAD_REACTORS
330
47
102
}
330
47
100
AcDbScale
 70
     0
300
1:8
140
1.0
141
8.0
290
     0
  0
SCALE
  5
4D
102
{ACAD_REACTORS
330
47
102
}
330
47
100
AcDbScale
 70
     0
300
1:10
140
1.0
141
10.0
290
     0
  0
SCALE
  5
4E
102
{ACAD_REACTORS
330
47
102
}
330
47
100
AcDbScale
 70
     0
300
1:16
140
1.0
141
16.0
290
     0
  0
SCALE
  5
4F
102
{ACAD_REACTORS
330
47
102
}
330
47
100
AcDbScale
 70
     0
300
1:20
140
1.0
141
20.0
290
     0
  0
SCALE
  5
50
102
{ACAD_REACTORS
330
47
102
}
330
47
100
AcDbScale
 70
     0
300
1:30
140
1.0
141
30.0
290
     0
  0
SCALE
  5
51
102
{ACAD_REACTORS
330
47
102
}
330
47
100
AcDbScale
 70
     0
300
1:40
140
1.0
141
40.0
290
     0
  0
SCALE
  5
52
102
{ACAD_REACTORS
330
47
102
}
330
47
100
AcDbScale
 70
     0
300
1:50
140
1.0
141
50.0
290
     0
  0
SCALE
  5
53
102
{ACAD_REACTORS
330
47
102
}
330
47
100
AcDbScale
 70
     0
300
1:100
140
1.0
141
100.0
290
     0
  0
SCALE
  5
54
102
{ACAD_REACTORS
330
47
102
}
330
47
100
AcDbScale
 70
     0
300
2:1
140
2.0
141
1.0
290
     0
  0
SCALE
  5
55
102
{ACAD_REACTORS
330
47
102
}
330
47
100
AcDbScale
 70
     0
300
4:1
140
4.0
141
1.0
290
     0
  0
SCALE
  5
56
102
{ACAD_REACTORS
330
47
102
}
330
47
100
AcDbScale
 70
     0
300
8:1
140
8.0
141
1.0
290
     0
  0
SCALE
  5
57
102
{ACAD_REACTORS
330
47
102
}
330
47
100
AcDbScale
 70
     0
300
10:1
140
10.0
141
1.0
290
     0
  0
SCALE
  5
58
102
{ACAD_REACTORS
330
47
102
}
330
47
100
AcDbScale
 70
     0
300
100:1
140
100.0
141
1.0
290
     0
  0
SCALE
  5
59
102
{ACAD_REACTORS
330
47
102
}
330
47
100
AcDbScale
 70
     0
300
1/128" = 1'-0"
140
0.0078125
141
12.0
290
     0
  0
SCALE
  5
5A
102
{ACAD_REACTORS
330
47
102
}
330
47
100
AcDbScale
 70
     0
300
1/64" = 1'-0"
140
0.015625
141
12.0
290
     0
  0
SCALE
  5
5B
102
{ACAD_REACTORS
330
47
102
}
330
47
100
AcDbScale
 70
     0
300
1/32" = 1'-0"
140
0.03125
141
12.0
290
     0
  0
SCALE
  5
5C
102
{ACAD_REACTORS
330
47
102
}
330
47
100
AcDbScale
 70
     0
300
1/16" = 1'-0"
140
0.0625
141
12.0
290
     0
  0
SCALE
  5
5D
102
{ACAD_REACTORS
330
47
102
}
330
47
100
AcDbScale
 70
     0
300
3/32" = 1'-0"
140
0.09375
141
12.0
290
     0
  0
SCALE
  5
5E
102
{ACAD_REACTORS
330
47
102
}
330
47
100
AcDbScale
 70
     0
300
1/8" = 1'-0"
140
0.125
141
12.0
290
     0
  0
SCALE
  5
5F
102
{ACAD_REACTORS
330
47
102
}
330
47
100
AcDbScale
 70
     0
300
3/16" = 1'-0"
140
0.1875
141
12.0
290
     0
  0
SCALE
  5
60
102
{ACAD_REACTORS
330
47
102
}
330
47
100
AcDbScale
 70
     0
300
1/4" = 1'-0"
140
0.25
141
12.0
290
     0
  0
SCALE
  5
61
102
{ACAD_REACTORS
330
47
102
}
330
47
100
AcDbScale
 70
     0
300
3/8" = 1'-0"
140
0.375
141
12.0
290
     0
  0
SCALE
  5
62
102
{ACAD_REACTORS
330
47
102
}
330
47
100
AcDbScale
 70
     0
300
1/2" = 1'-0"
140
0.5
141
12.0
290
     0
  0
SCALE
  5
63
102
{ACAD_REACTORS
330
47
102
}
330
47
100
AcDbScale
 70
     0
300
3/4" = 1'-0"
140
0.75
141
12.0
290
     0
  0
SCALE
  5
64
102
{ACAD_REACTORS
330
47
102
}
330
47
100
AcDbScale
 70
     0
300
1" = 1'-0"
140
1.0
141
12.0
290
     0
  0
SCALE
  5
65
102
{ACAD_REACTORS
330
47
102
}
330
47
100
AcDbScale
 70
     0
300
1-1/2" = 1'-0"
140
1.5
141
12.0
290
     0
  0
SCALE
  5
66
102
{ACAD_REACTORS
330
47
102
}
330
47
100
AcDbScale
 70
     0
300
3" = 1'-0"
140
3.0
141
12.0
290
     0
  0
SCALE
  5
67
102
{ACAD_REACTORS
330
47
102
}
330
47
100
AcDbScale
 70
     0
300
6" = 1'-0"
140
6.0
141
12.0
290
     0
  0
SCALE
  5
68
102
{ACAD_REACTORS
330
47
102
}
330
47
100
AcDbScale
 70
     0
300
1'-0" = 1'-0"
140
12.0
141
12.0
290
     0
  0
ENDSEC
  0
EOF
